Tocamela

Vídeo Tutoriales de canciones fáciles

Vídeo Oficial Tocamela

Flaca Andres Calamaro

Flaca

Debes tener el Javascript activado y la última versión del Flash player para ver este vídeo

21/05/2007 186.526 Vistas

Aquest vídeo està al(s) curso(s): Cançons sense fa, Cançons Fácils, Curs de Guitarra Tocamela.
Flaca Acordes:
G
g
B7
b7
Em
em
C
c
D
d
Nota de Flaca:
 Punteo:

e|-------------------------------------------0-----------------| 1ra cuerda (la mas fina)
B|--3--0------------0-4--0--------------0----------------------|
G|--------2--0--2------------2--0--2---------------------------|
D|-------------------------------------------------------------|
A|-------------------------------------------------------------|
E|-------------------------------------------------------------|6ta cuerda la mas gruesa

e|-----------------------------------------------------------------|
B|---0-------------0--3----1-1------0--3--------------0-3-3--------|
G|------2--0--2-----------------------------2--0--2-----------2-0--|
D|-----------------------------------------------------------------|
A|-----------------------------------------------------------------|
E|-----------------------------------------------------------------|

e|---------------------------0-----0---------------------------|
B|-------------------1--0------4-----2-----0---------3--1--1---|
G|------------0--2-----------------------------2--0------------|
D|--0--2--4----------------------------------------------------|
A|-------------------------------------------------------------|
E|-------------------------------------------------------------|

e|-------------2------------2----------------------------------|
B|---0-----2-----0------3-----2--0-----------------------------|
G|------2-----------2------------------------------------------|
D|-------------------------------------------------------------|
A|-------------------------------------------------------------|
E|-------------------------------------------------------------|

ExpandirContraure

262 Comentarios. Comenta


Pon aquí la URL del vídeo de un youtube (opcinal)

eli, te quiero, me he enamorado y te voy a conocer cuando menos lo esperes.....
By anónimo over 6 years ago.
Brother... muy buen vídeo... me gustaría saber los rasgueos puesto que soy principiante y me cuesta un poco identificarlos :) !!!!!
By anónimo over 7 years ago.
hola enhorabona per la feina,estic aprenent i m´agraden molt els vostres videos,però seria de moltissima utilitat per la gent que no sabem que expliquesiu els ritmes..
By anónimo over 7 years ago.
Mirar este link<br />
By anónimo over 7 years ago.
esta chever el video pero no ensenan el ritmo<br />
By anónimo over 8 years ago.
Eli, eres guappissima, pal dia 34 x la noxe, me regalan una guitarra para poder empezar, viendote a ti, seguro q me inspiro muxo massS!! Guapa !!
By anónimo over 8 years ago.
Maravillos los vídeos... esta canción me sirve de mucho para mí que estoy empezando!!<br />
El día que hagáis alguna de Carlos Chaouen me hago 1000 kms para daros las gracias..
By anónimo over 8 years ago.
Està genial! Però volem el puntejat final!
By anónimo over 8 years ago.
como podes ser tan linda eli?<br />
By anónimo over 8 years ago.
La veo mala
By anónimo over 8 years ago.

Este vídeo es trabajo propio del profesor y representa su interpretación personal de la canción. El material contenido en esta página es exclusivo para uso privado, por lo que se prohibe su reproducción o retransmisión, así como su uso para fines comerciales.

Tocamela!

362 Vídeos de 56 profesores con 14.070 comentarios, vistos: 12.907.911 veces.

Sobre nosotros

TOCAMELA es una iniciativa de la Asociación de Músicos Online Toca, con el principal objetivo de pasarlo bien, enseñar y conquistar el mundo y esclavizar la humanidad.



© 2019 Asoc. Toca & Albert Catalan | Condiciones legales | Desarrollado por Dospixels web development