Tocamela

Vídeo Tutoriales de canciones fáciles

Vídeo Oficial Tocamela

Tapping Riff

Tapping Riff

Debes tener el Javascript activado y la última versión del Flash player para ver este vídeo

03/06/2011 18.177 Vistas
Nota de Tapping Riff:

Dincs de l'apartat "coses meves" que tinc per aqui això és un experiment no se dins de quin estil de metall que us pot anar molt be de practicar a tots els que volgueu agafar un bon control tocant ràpid amb la guitarra (shred).
I és així perquè ambdues mans estan gairebé quietes i només hem de concentrar-nos en posar els dits on i quan toca, això facilita molt les coses. Tècnicament doncs hammer ons, pull offs i tapping amb i sense slide. Recomano que ho practiqueu primer més lent com al final del video i aneu pujant poc a poc la velocitat. Ajudeu-vos de la ma dreta per parar el so de les altres cordes col·locant-la directament sobre d'elles i mutejant-les.

Respecte al so, si teniu pod's, presets o pedaleres vàries recomano també que hi afegiu un punt de flanger que acaba donant-li un toc molt bestia.

ExpandirContraure
Tablatura de Tapping Riff:
-12--8--5--0--5--8--12--13--12--8--5--8--13--8--5--8--
------------------------------------------------------
------------------------------------------------------
------------------------------------------------------
------------------------------------------------------
------------------------------------------------------


-12--8--5--0--5--8--12--13--12--8--5--8--13--8--5--7--
------------------------------------------------------
------------------------------------------------------
------------------------------------------------------
------------------------------------------------------
------------------------------------------------------


-12--7--5--0--5--7--12--13--12--7--5--7--13--7--5--7--
------------------------------------------------------
------------------------------------------------------
------------------------------------------------------
------------------------------------------------------
------------------------------------------------------



-12--7--5--0--5--7--12--13--12--7--5--7--13--7--5--8--
------------------------------------------------------
------------------------------------------------------
------------------------------------------------------
------------------------------------------------------
------------------------------------------------------
ExpandirContraure

10 Comentarios. Comenta


Pon aquí la URL del vídeo de un youtube (opcinal)

Hola, Sr, arquitecte, soc Carles Alba i he de parlar amb tu. Trucam s'is plau al 670602874.
By anónimo over 5 years ago.
Només van els videos de la publi :)<br />
By anónimo over 6 years ago.
Mola molt!!!Com tocaassss! :O
By anónimo over 6 years ago.
sip, es veritat no ho havia posat enlloc
By valls over 7 years ago.
la corda esta afinada en re?
By anónimo over 7 years ago.
m/ (><) m/
By anónimo over 7 years ago.
Molo el rollo ambiental com de peli de por d'aquest lick
By anónimo over 8 years ago.
Gràcies Gerard!! Prova'l que mola i el tindràs ben ràpid aquest.<br />
<br />
Respecte a les notes per segon, doncs si dividim les 129 notes que hi ha pels 11,3 segons que dura això (+ o -) sortiria a 11,4 notes per segon. L'exercici no estava claquetat en el moment de grabar-lo que donaria el punt exacte del que hauria de sortir però estaria molt a prop.<br />
<br />
Tot i així i ho comento en general més que pensar en anar a tocar moltes notes per segon ens hem de concentrar en que es pugui entendre bé i tenir un bon control del que toquem.
By valls over 8 years ago.
Una pregunta.. Quantes notes per segon toques aqui?
By anónimo over 8 years ago.
GRUTAL no, LO SEGÜENT!!!!!!! Molt espectacular la tècnica i un sò bestial! La reverb i aquest tipus d'eco queden de collons!!!!!!!<br />
<br />
+4 Champions per tu Mestre! :)
By Gerard Merino over 8 years ago.

Este vídeo es trabajo propio del profesor y representa su interpretación personal de la canción. El material contenido en esta página es exclusivo para uso privado, por lo que se prohibe su reproducción o retransmisión, así como su uso para fines comerciales.

Tocamela!

362 Vídeos de 56 profesores con 14.067 comentarios, vistos: 12.785.655 veces.

Sobre nosotros

TOCAMELA es una iniciativa de la Asociación de Músicos Online Toca, con el principal objetivo de pasarlo bien, enseñar y conquistar el mundo y esclavizar la humanidad.



© 2018 Asoc. Toca & Albert Catalan | Condiciones legales | Desarrollado por Dospixels web development