Tocamela

Vídeo Tutoriales de canciones fáciles

Vídeo Oficial Tocamela

Stairway to Heaven Led Zepelin

Stairway to Heaven

Debes tener el Javascript activado y la última versión del Flash player para ver este vídeo

04/01/2007 59.800 Vistas

Aquest vídeo està al(s) curso(s): Curs de Guitarra Tocamela.
Stairway to Heaven Acordes:
Lam
lam-1
Sol
sol-1
Fa
fa
Nota de Stairway to Heaven:

La Tabulació:

 
Am Am7
|---------------------------------------------|
|------------------------------------------13-|
|---------10-------------------12----12-14----|
|------10----12-10----10-12/14----14----------|
|-8/12-------------12-------------------------|
|---------------------------------------------|
Fmaj7
|------------------------15b17-15-12----------------|
|--15b17-15-13--15-13-13-------------15b17-15-13----|
|------------------------------------------------14-|
|---------------------------------------------------|
|---------------------------------------------------|
|---------------------------------------------------|
Am Am7
|----------------------------------------------------------------------------|
|-13-15b17b15p13----13-15b17b15p13----13---15b17b15p13----13--15b17b15p13----|
|----------------14----------------14------------------14-----------------14-|
|----------------------------------------------------------------------------|
|----------------------------------------------------------------------------|
|----------------------------------------------------------------------------|
Fmaj7
|----------------------------------------------------------------------------|
|-13-15b17b15p13----13--15b17b15p13----13--15b17b15p13----13--15b17b15p13----|
|----------------14-----------------14-----------------14-----------------14-|
|----------------------------------------------------------------------------|
|----------------------------------------------------------------------------|
|----------------------------------------------------------------------------|

Am Am7 hold bend
|------------------------------------------15b17--|
|-13--15b17b15p13----13---15b17b15p13----13-------|
|-----------------14------------------14----------|
|-------------------------------------------------|
|-------------------------------------------------|
|-------------------------------------------------|
Fmaj7
|-b17b15-12---12--------------------------------15--|
|-----------15---15--13----13-15-13---13--15b17-----|
|-----------------------14----------14--------------|
|---------------------------------------------------|
|---------------------------------------------------|
|---------------------------------------------------|

Am Am7 /--------- Fmaj7
-----------------------------|-----------17----------------------------------|
-15b17b15p13----13/12--13/10-|--------20----20-20----------------------------|
-------------14--------------|--19b21-21----------19b21b19p17---19--17----19-|
-----------------------------|--------------------------------19-------19----|
-----------------------------|-----------------------------------------------|
-----------------------------|-----------------------------------------------|
Am Am7 Fmaj7 Am Am7
|--------------------|--------------------------------|--------------|
|--------------------|--------------------------------|--------------|
|-19b21--13/12 13/10-|--14b17--14b17-14--12--14--12-12b14------------|
|--------------------|--------------------------------|--------------|
|--------------------|--------------------------------|--------------|
|--------------------|--------------------------------|--------------|
Fmaj7 Am Am7
|-----------------------------------|----------8/7--8/5--|
|-----------------------------------|--------------------|
|-10b14----10b12b10-9-7----7--------|-7-9-7--------------|
|-----------------------10----10----|-------10-7---------|
|-----------------------------------|--------------------|
|-----------------------------------|--------------------|



Fmaj7
|----20-p17------20-p17------20-p17------20-p17------20-p17-----20b22-|
|-17--------17----------17----------17----------17----------17--------|
|---------------------------------------------------------------------|
|---------------------------------------------------------------------|
|---------------------------------------------------------------------|
|---------------------------------------------------------------------|



Writer Jimmy Page/Robert Plant

 

Explicació bàsica del tema:

http://www.tocamela.cat/video/led-zepelin-stairway-to-heaven/

ExpandirContraure

84 Comentarios. Comenta


Pon aquí la URL del vídeo de un youtube (opcinal)

la segunda guitarra esta desafinada?<br />
buen solo=)
By anónimo over 7 years ago.
pele quina distorsio mes horrenda.. no? xDD<br />
By AleixGibson over 7 years ago.
el guitarra ritmico no tiene ritmo.<br />
By anónimo over 7 years ago.
quin crac!
By anónimo over 8 years ago.
OMG ERES GENIAL

By anónimo over 9 years ago.
ola tio soy tu fan numero uno y me encantaria que pusieras mas videos de acordes para aprender a tocar y tambien soi un fan aferrimo de ac dc eres el mejor

By anónimo over 9 years ago.





[spoiler][/spoiler]
By anónimo over 9 years ago.
posa algun video de nirvana
By anónimo over 10 years ago.
la mejor cancion escrita en la historia del rockk
By anónimo over 10 years ago.
como hacer los acompañamientos

By anónimo over 10 years ago.

Este vídeo es trabajo propio del profesor y representa su interpretación personal de la canción. El material contenido en esta página es exclusivo para uso privado, por lo que se prohibe su reproducción o retransmisión, así como su uso para fines comerciales.

Tocamela!

362 Vídeos de 56 profesores con 14.067 comentarios, vistos: 12.832.232 veces.

Sobre nosotros

TOCAMELA es una iniciativa de la Asociación de Músicos Online Toca, con el principal objetivo de pasarlo bien, enseñar y conquistar el mundo y esclavizar la humanidad.



© 2019 Asoc. Toca & Albert Catalan | Condiciones legales | Desarrollado por Dospixels web development