Tocamela

Vídeo Tutorials de cançons fàcils

Vídeo Oficial Tocamela

Anya - Deep Purple Deep Purple

Anya - Deep Purple

Has de tenir el Javascript activat i l'última versió del Flash player per poder veure aquest vídeo

14/04/2008 40.124 Vistes
Nota de Anya - Deep Purple:

Bueno va... si que escriuré algo. I a més en anglès perquè queda més internacional, potser el machaca de becari que

he pillat la lia en algun lloc, és nou no ho tingueu en compte...

 

 
e|-12~~12h13~~10-12-10h12p10~~~~~|-10-12-10h12p10~~~8-10----0~~~~~~|
B|-------------------------------|-----------------------10--------|
G|-------------------------------|---------------------------------|
D|-------------------------------|---------------------------------|
A|-------------------------------|---------------------------------|
E|-------------------------------|---------------------------------|
 
The guitar pauses here and the organ plays. at about 0:15, the next part starts.
 
e|-------------------------------|---------------------------------|
B|---5-5-5h6--3-5~~~~~~~~~~~~~~~~|---1-3-1h3p1h3p1---0h1--0h1------|
G|-------------------------------|-2---------------2----2----------|
D|-------------------------------|---------------------------------|
A|-0-----------------------------|---------------------------------|
E|-------------------------------|---------------------------------|
e|-------------------------------|---------------------------------|
B|----0-0h1p0---0h1p0h1p0--------|-----------------0-1-0h1p0-------|

G|--2----------------------------|-----0~~~~~~--------------2------|
D|-2-----------------------------|---0~~~~~~~~---2------------2----|
A|-------------------------------|-------------0-------------------|
E|-------------------------------|-3~~~~~~~~~~---------------------|
 
At the end of that last bar he plays a bit of a scale but I can not work that part out. 
Then comes the speed of light ending. I improvised this little part, because I am not going to
spend an hour working out a couple of the notes that I can not get the pitch of.
 
e|--3-1h3p1-0---0-|--------------------------------------------0~~~|
B|------------3---|------0h1h3----0---------------------------0~~~~|
G|----------------|-----------1h2----------------------------1~~~~~|
D|----------------|-----------------0h2h3------------------~2~~~~~~|
A|----------------|---------------------0h2h3h-----------~~2~~~~~~~|
E|----------------|----------------------------0h1h3-0-~~~0~~~~~~~~|

Song By: Gillan, Blackmore, Glover, Lord

ExpandirContraure

30 Comentaris. Comenta


Posa aquí la URL del vídeo d'un youtube (opcinal)

Tocamela... abans molaves T.T
By anònim over 7 years ago.
Temazo al canto. Proposo la canço d Santa Esmeralda.Don,t let me be miss understood. Per inicis d canço no te desperdici! Una abraçada cosí. Dsd bcn
By anònim over 8 years ago.
mola molt la intro! Mira que jo he sigut super fan de deep purple pero no la havi escoltat!
By PauGilmour over 10 years ago.
Jo, ni me acordaba de este tema! Y eso que yo tengo el Made in Japan, pero en españa y en la caja del CD sin salir por lo menos 10 años...

Cuando vaya pa españa lo cojo y me lo traigo, esta muy guapa el Anya...

Gracias



Pedro
By ulysse69 over 10 years ago.
Moltes gràies Veyla!!! Aquesta intro tocada així (més o menys) surt al Made in Japan, un directe de dos Cd's, és amb guitarra i teclat, la meva "composició ha estat només introduir una mica els acords que marca el piano..

Vaig perdre aquest Cd i tinc ganes d'escoltar aquest tema perquè està tret de memòria i segur que hi he variat unes quantes coses. Però bé encantat de que us moli!

Salut i tocamela!
By valls over 10 years ago.
la primera vegada que vaig entrar en aquesta pàgina va ser aquest video el primer que vaig veure.

I encara que no s'asembli a la cançó real, m'encanta.! es una versió genialíssima.!

em costen algunes parts, sobretot el polo aquest XD

genial el tema Ü

ho podries considerar composició teva
By veyla over 10 years ago.
em sembla una passada el tema, amb esforç me la treuré! :) inclus m'agrada més que l'original.



seguiu així!
By gerarinho over 10 years ago.
ÉS MOLT MOLT GUAPO!! va tiu acava la cançó!!!!

entres a un lloc pilles una guitarra i toques això i a tothom se li cauen les calçes al terra nanol!

moltes gràcies!!!!
By anònim over 10 years ago.
pensament profund: no sé per qué li diuen pene( amb accent lleidatá) amb l'alegria que done!
By anònim over 11 years ago.
TA DE PARABENS MUITO BOM!
By anònim over 11 years ago.

Aquest vídeo és treball propi del professor i representa la seva interpretació personal de la cançó. El material contingut en aquesta pàgina és exclusiu per a ús privat, de manera que es prohibeix la seva reproducció o retransmissió, així com el seu ús per a fins comercials.

Tocamela!

362 Vídeos de 56 professors amb 14.070 comentaris, vistos: 12.926.718 vegades.

Sobre nosaltres

TOCAMELA és una iniciativa de la Associació de Músics Online Toca; amb el principal objectiu de passar-ho bé, ensenyar i conquerir el món i esclavitzar la humanitat.



© 2019 Asoc. Toca & Albert Catalan | Condicions legals | Desenvolupat per Dospixels web development