Tocamela

Vídeo Tutorials de cançons fàcils

Vídeo Oficial Tocamela

Back in Black Ac Dc

Back in Black

Has de tenir el Javascript activat i l'última versió del Flash player per poder veure aquest vídeo

14/09/2009 43.804 Vistes
Back in Black Acords:
Mim
mim
Re
re
La
la
Sol
sol-4
Si
si
Back in Black Backing Track


Nota de Back in Black:

Agraïments al Pere Picornell&Família per deixar-nos la "caseta".

ExpandirContraure
Tablatura de Back in Black:
INTRO:

e|----------------------------------------------|--------------------------|
B|----------------------------------------------|--------------------------|
G|----------------------------------------------|--------------------------|
D|------{X}--------X--------{X}--------X--------|----{X}--------X----------|
A|------{X}--------X--------{X}--------X--------|----{X}--------X----------|
E|------{X}--------X--------{X}--------X--------|----{X}--------X----------|

PARTE 1:

   E                D              A                                 R 
e|-------------------------------------|--------------3-0------------------|
B|------------------3-3-3--------------|--------------------3-0------------|
G|------------------2-2-2----------2-2-|2-----------------------2^(4)`2p0--|
D|-2----------------0-0-0----------2-2-|2----------------------------------|
A|-2-------------------------------0-0-|0----------------------------------|
E|-0-----------------------------------|-----------------------------------|

   E               D              A                   FIN PARTE 1:
e|------------------------------------|-----------------------------------||
B|-----------------3-3-3--------------|-----------------------------------||
G|-----------------2-2-2----------2-2-|2---------------------------------o||
D|-2---------------0-0-0----------2-2-|2---------------------------------o||
A|-2------------------------------0-0-|0---2-----2-----2-----2------------||
E|-0----------------------------------|------4.----5.----6.----7/---------||

Todo el rato se hace la parte 1:

Back in black_   I hit the sack,   I've been too long, I'm glad to be 
back,yes,I'm___  let loose    from the noose,_    That's kept me hangin' 
about._I keep lookin' at the sky 'cause it's gettin' me high._ Forget the 
hearse 'cause I'll never die. I got   nine lives,     cat's eyes, Abusin' 
ev'ry one of them and runnin' wild.  'Cause I'm (to Chorus)
    
PARTE 2:

       LA   MIm    SI     LA     SI           LA    MIm    SI    LA      SI
   back,                  yes I'm   back._                         Well I'm 
e|---------------------------------------|---------------------------------|
B|---------------------------------------|---------------------------------|
G|-----2------------4-----2------4-------|-----2------------4-----2------4-|
D|-----2-----2------4-----2------4-------|-----2-----2------4-----2------4-|
A|-----0-----2------2-----0------2-------|-----0-----2------2-----0------2-|
E|-----------0---------------------------|-----------0---------------------|

        SOL  RE    LA  (SOL)   LA          SO     RE   LA  (SOL)    LA
  back,                        yes  I'm   back                    Well I'm
e|------3-----2--------------------------|--3-----2------------------------|
B|------3-----3--------------------------|--3-----3------------------------|
G|------0-----2-----2-----------2--------|--0-----2-----2------------2-----|
D|------0-----0-----2-----------2--------|--0-----0-----2------------2-----|
A|------x-----------0-----------0--------|--x-----------0------------0-----|
E|------3---------------3^---------------|--3---------------3^-------------|

      LA    MIm    SI     LA    SI             LA  MIm     SI     LA    SI
    back,______________________________       back._______________ Well I'm 
e|---------------------------------------|---------------------------------|
B|---------------------------------------|---------------------------------|
G|-----2------------4-----2------4-------|-----2------------4-----2------4-|
D|-----2-----2------4-----2------4-------|-----2-----2------4-----2------4-|
A|-----0-----2------2-----0------2-------|-----0-----2------2-----0------2-|
E|-----------0---------------------------|-----------0---------------------|

      SOL SOL SOOOOOOOOOOOOOOOOOOOOOOL      RE    RE   REEEEEE
   back in black,_              yes, I'm  back in black   
e|----3------3------3----3-3-3-3------3-|-----2----2----2-----------------||
B|----3------3------3----3-3-3-3------3-|-----3----3----3-----------------||
G|----0------0------0----0-0-0-0------0-|-----2----2----2-----------------||
D|----0------0------0----0-0-0-0------0-|-----0----0----0-----------------||
A|----x------x------x----x-x-x-x------x-|---------------------------------||
E|----3------3------3----3-3-3-3------3-|---------------------------------||


Otra vez la parte 1:

Back in the back of a   Cadillac   Number one with a bullet I'm a power 
pack. Yes, I'm  in a bang_____with a gang,   They gotta catch me if they 
want me to hang. 'Cause I'm back on the track, and I'm beatin' the flack. 
Nobody's gonna get me on another rap. So,look at me now,I'm just makin, my 
play, Don't try to push your luck, just get out of my way. 'Cause I'm(to Chorus) 

  
PARTE 2
ExpandirContraure

53 Comentaris. Comenta


Posa aquí la URL del vídeo d'un youtube (opcinal)

el video esta super , ademas de q el q canta le pone un buen ambiente y roberto la saca identica a la origuinal ..exelente att bp y yd
By anònim over 7 years ago.
muy buen video sigue asi tio
By anònim over 7 years ago.
<br />
El que canta es RUMBOY???
By anònim over 8 years ago.
Muchísimas gracias! :D
By toletum91zgz over 8 years ago.
ERES UN PUÑETERO FENOMENO, UN ABRAZO AMIGO. SIGUE ASÍ
By anònim over 8 years ago.
muy bueno el video me e aprendido la cancion en minutos ,gracias

podriais provar de poner tambien el solo ke asi la cancio esta enterita

salu2
By anònim over 8 years ago.
friki i  encima profe

By anònim over 8 years ago.
Anonimo, un comentario que da gusto leer!



Tienes razon que estaba nervioso, pero es normal cuando te ponen dos focos a 3 metros (que daban un calor que no veas), una camara que casi no ves porque vas deslumbrado y un monton de gente que no sabes que estara pensando. Y tambien, por supuesto, tenia miedo de tocar las cuerdas que no eran, que por suerte, no hice jajajaja ;) Y que decir del Rumboy... Impresionante, sin mas jajajaja



Ya llegara el momento que dejara de ser virtualmente y te pondras a tocar con nosotros, ya. Que "hay mas dias que longanizas", oye.



Y respecto a lo de que con practica se consigue TODO, hay que ponertelo en negrita, porque tienes toda la razon del mundo. Si yo he podido... ¿Quien no?



Un saludo!!! :D
By toletum91zgz over 8 years ago.
Tu amigo no me deja tocar Roberto, me estoy partiendo el culo de verle cantar como Brian...que crack, además relaja el ambiente... que se te veía nerviosillo (a mi me pasaría lo mismo solo que además tocaría las cuerdas que no son xD).

Pues resulta que este vídeo lo vi cuando lo colgaste, y dije...uff esto como que paso de hacerlo, y hoy viendo videos del canal de ociosu (rock para muñones) pues vi este mismo lick, lo intenté y...¡Eureka!, hacer pentatónicas acaba por dar sus frutos... así que me pasé para tocar un poco con vosotros dos aunque sea virtualmente ;)

La próxima es la de Sultan of Swing!!! que la pienso aprender SÍ o SÍ.

Sólo recordaros a todos una cosa que parece que muchos olvidamos, con práctica se consigue TODO.

Un saludo.
By anònim over 8 years ago.
Tssssch, no digas eso. Aunque no te lo creas, yo tambien cuando me meto a Youtube y veo segun que videos me deprimo al ver que nunca podre alcanzar ese nivel, pero te lo digo, con tiempo, paciencia y dedicacion conseguiras mucho mas de lo que esperas.



Y que no me entere yo, que si no me ire de propio a donde estes, Sr.Anonimo, a darte una clase particular acelerada jajajajaa ;)



Muchas gracias por el comentario, compañero!!! :brutal:
By toletum91zgz over 8 years ago.

Aquest vídeo és treball propi del professor i representa la seva interpretació personal de la cançó. El material contingut en aquesta pàgina és exclusiu per a ús privat, de manera que es prohibeix la seva reproducció o retransmissió, així com el seu ús per a fins comercials.

Tocamela!

362 Vídeos de 56 professors amb 14.067 comentaris, vistos: 12.731.838 vegades.

Sobre nosaltres

TOCAMELA és una iniciativa de la Associació de Músics Online Toca; amb el principal objectiu de passar-ho bé, ensenyar i conquerir el món i esclavitzar la humanitat.



© 2018 Asoc. Toca & Albert Catalan | Condicions legals | Desenvolupat per Dospixels web development