Tocamela

Vídeo Tutorials de cançons fàcils

Vídeo Oficial Tocamela

The Bard's Song Blind Guardian

The Bard's Song

Has de tenir el Javascript activat i l'última versió del Flash player per poder veure aquest vídeo

15/04/2009 28.582 Vistes

Aquest vídeo està al(s) curso(s): Curs de Metal.
The Bard's Song Acords:
Lam
lam
Sol
sol
Mim
mim
Rem
rem
Fa
fa
Do
do
Nota de The Bard's Song :
Aquesta és la meva versió de Bard s song podeu veure la versió 
sencera per dues guitarres aqui http://forum.tocamela.cat/viewtopic.php?f=31&t=1532
ExpandirContraure
Tablatura de The Bard's Song :
| 
 |
Intro                                       -------------     ---------- 
                                           |1.               |2.
E|--0----------|------------|----------|   |-------------|   |---------||
B|-----3--1--0-|-0--1--0----|-0--------|   |-1--3--1-0h1-|   |---------||
G|*------------|----------0-|----2--0-*|   |-------------|   |--2------||
D|*------------|------------|---------*|   |-------------|   |---------||
A|--0----------|------------|----------|   |-0-----------|   |--0------||
E|-------------|-3----------|-0--------|   |-------------|   |---------||
                                            1st time          2nd time

 Verse 1
E|-0----------|-----|-----------------------|------------|
B|------3---1-|-0---|-0---------1------0----|-1----------|
G|------------|-----|-----------------------|------------|
D|------------|-----|-----------------------|------------|
A|-0----------|-----|-----------------------|-0----------|
E|------------|-3---|-0---------------------|------------|
   Now you all  know  the bards  and   their  songs.  When

 |
E|-0---------------|-----------------|-----------------|-----------------|
B|---1---3-----1---|-0-----1-----0---|-----------------|-1-----0-----1---|
G|-----2---2-----2-|---0-----0-----0-|-0-----2-----0---|---2-----2-----2-|
D|-----------2-----|-----0-----0-----|---2-----2-----2-|-----2-----2-----| x3
A|-0---------------|-----------------|-----2-----2-----|-0---------------|
E|-----------------|-3---------------|-0---------------|-----------------|
   Hours have  gone  by,               I     close  my   eyes.       In  a...

 |
E|-0---------------|---------------------|-----------------|-1p0---------|
B|---1---3-----1---|-0-----1-----0-------|-----------------|-3---3-------|
G|-----2---2-----2-|---0-----0-----0-----|-0-----2-----0---|-2--------2--|
D|-----------2-----|-----0-----0---------|---2-----2-----2-|-0-----------|
A|-0---------------|---------------------|-----2-----2-----|-------------|
E|-----------------|-3-------------------|-0---------------|-------------|
  now   hear  my    song        about the dawn  of    the   night.   Let s

 |
E|-----|-----|------|-----|---------|---------|-----|------||
B|-1---|-0---|------|-0---|-1-----1-|-0-----0-|-----|-0----||
G|----0|----0|-2----|---0-|---0-----|---0-----|-2---|----0-||
D|---2-|---0-|----2-|-----|-----2---|-----0---|---2-|------||
A|-3---|-2---|-0----|-2---|-3-------|-2-------|-0---|-2----||
E|-----|-----|------|-----|---------|---------|-----|------||
   sing  the   bard s song                               To -
 |

Chorus 

E|-1---1-|-0----0-|-1---1-|-0----0-|-1---1-|-0----0-|-1---1-|-1----1-|
B|-3---3-|-1----1-|-3---3-|-1----1-|-3---3-|-1----1-|-3---3-|-1----1-|
G|-2-2---|-2--2---|-2-2---|-2--2---|-2-2---|-2--2---|-2-2---|-2--2---|
D|-0-----|--------|-0-----|--------|-0-----|--------|-0-----|--------|
A|-------|-0------|-------|-0------|-------|-0------|-------|--------|
E|-------|--------|-------|--------|-------|--------|-------|-1------|
  -mor  -  row will take us away,    far from home    no one will ever

 |
E|-3---3-|-----------1p0-------|-1-----1----|-3----3-|
B|-3---3-|-----3---3-----3-----|-1---3---3--|-3----3-|
G|-4-4---|---2---2-------------|-2-2--------|-4--4---|
D|-------|-0-------------------|------------|--------|
A|-------|---------------------|------------|--------|
E|-3-----|---------------------|-1----------|-3------|
   know our names,       but the bard s song will remain...

 |
Outro

E|-------|------------|-------------------|
B|-1-----|-0----------|-1-------1p0-------|
G|-----0-|-----0---0--|----2--2-----2-----|
D|-2-2---|---0---0----|---2-2---------2---|  X 6
A|-3-----|-2----------|-0-----------------|
E|-------|------------|-------------------|
   In my   thoughts and in my dreams they re always  in my   mind         These...

 |
E|------|--------|-----------|-<0>---|
B|-1----|--0-----|-0-1p0---1-|-<0>---|
G|------|--0-----|-------2---|-<0>---|
D|-2----|--0-----|-2---------|-------|
A|-3----|--2-----|-2---------|-------|
E|------|--------|-0---------|-------|
   see     them    too...
ExpandirContraure

33 Comentaris. Comenta


Posa aquí la URL del vídeo d'un youtube (opcinal)

podrian subir el video como publico por favor? (perdon por no saber catalan)
By anònim over 5 years ago.
Hola, ja fa molt temp que estic esperant a veure si podeu arreglar el link, perque nomes aconsegueixo fer la primera part de la canço.Ho agrairia molt, gracies y salut!
By anònim over 6 years ago.
siusplau... podrieu posar la tablatura de la part que falta (on poseu OUTRO)??<br />
es que es una pena no poder tocar-la sencera !<br />
o si algu pot dir-me on trobar aquesta part... gracies!!
By anònim over 8 years ago.
ei, no es veu la versió sencera!! surt un error..
By anònim over 8 years ago.
Boníssima cançó.

Gràcies pel plaer de poder tocar-la.



I si fessis l'adaptació de "Lord of the Rings"... seria brutal també.



Salut!



By anònim over 9 years ago.
Boooooooooooooooooooooooooooooona!
By anònim over 9 years ago.
hasta escalofrios!, que maestros
By anònim over 9 years ago.
muy bueno valls!!!... me encanta este tema, como tambien el de helloween, que se encuentra dentro de este sitio web. Estar{ia muy bueno que sigas dando demostraciones, a temas de bandas heavys, con estas clases de baladas...

Dale para adelante, y un saludo desde Argentina!!!

By anònim over 9 years ago.
endavant Alex! es un gustasso de tema si senyor i si tens algun dubte pregunta!
By valls over 9 years ago.
Increible!

Aquesta cançó és increible, sempre m'ha encantat. I no sabia que la tenieu pujada. Des d'ara ja m'he fixat un objectiu: aprendre-la i aprendre-la bé!



Moltes gràcies per posar-la i (òbviament, no cal dir-ho) molt ben tocada i explicada. Eli, m'encanta la teva veu :)
By Alex1986 over 9 years ago.

Aquest vídeo és treball propi del professor i representa la seva interpretació personal de la cançó. El material contingut en aquesta pàgina és exclusiu per a ús privat, de manera que es prohibeix la seva reproducció o retransmissió, així com el seu ús per a fins comercials.

Tocamela!

362 Vídeos de 56 professors amb 14.067 comentaris, vistos: 12.749.304 vegades.

Sobre nosaltres

TOCAMELA és una iniciativa de la Associació de Músics Online Toca; amb el principal objectiu de passar-ho bé, ensenyar i conquerir el món i esclavitzar la humanitat.



© 2018 Asoc. Toca & Albert Catalan | Condicions legals | Desenvolupat per Dospixels web development