Tocamela

Vídeo Tutorials de cançons fàcils

Vídeo Oficial Tocamela

BATTERY (Intro) Metallica

BATTERY (Intro)

Has de tenir el Javascript activat i l'última versió del Flash player per poder veure aquest vídeo

09/07/2009 27.109 Vistes

Aquest vídeo està al(s) curso(s): Curs de Guitarra Tocamela.
Tablatura de BATTERY (Intro):
Atenció la primera corda afinada en Re, però només si anem a provar el
 combo en tres guitarres, sinó no cal fer-ho.

h= hammer on
p=pull off
()=mantenir nota sonant
  
  
 Gtr I

  

D|------------------------|--------------------|
B|------------------------|--------------------|
G|------------------------|---------0-----(0)--|
D|-3P2----(2)2---------(2)|-2--(2)0-0-----(0)--|
A|-2------(2)0---------(0)|-0--(0)-------------|
E|-0------(0)1---------(1)|-2--(2)--3-----(3)--|

 
 Gtr I + Gtr II
  
D|------------------------|--------------------|
B|-----0h1-----0--0h1p0---|---0h1-------1--0---|
G|---------2------------2-|-------2-0---0--0---|
D|-3P2----(2)2---------(2)|-2--(2)0-0-----(0)--|
A|-2------(2)0---------(0)|-0--(0)-------------|
E|-0------(0)1---------(1)|-2--(2)--3-----(3)--|

  



 Gtr I + Gtr II + Gtr III
  
D|-----0h2-----0--2p0-----|---0h2-------2--0---|
B|-----0h1-1---0--1-----1-|---0h1-1-----1--0-0-|
G|---------2------------2-|-------2-0---0--0-0-|
D|-3P2--------------------|-2-----0-0-------(0)|
A|-2(2)-------------------|-0------------------|
E|-0(0)------1---------(1)|-2-------3-------(3)|




i acaba amb Mim, si, sol, si(tocant Re# i fa#), mim.

Us deixo aqui sota la versio real que seria combinar les tres
 guitarres perquè ja veieu que a l afegir-hi l última jo em menjo 
notes, el primer que me la toqui be sencera te una samarreta! i be vol 
dir perfecte, la digitació seria xunguíssima però tècnicament és 
factible...


 Gtr I + Gtr II + Gtr III
  
D|-----0h2-----0--0h2p0---|---0h2-------2--0---|
B|-----0h1-1---0--0h1p0-1-|---0h1-1-----1--0-0-|
G|---------2------------2-|-------2-0---0--0-0-|
D|-3P2----(2)2---------(2)|-2--(2)0-0-------(0)|
A|-2------(2)0---------(0)|-0--(0)----------(0)|
E|-0------(0)1---------(1)|-2--(2)--3-------(3)|
ExpandirContraure

25 Comentaris. Comenta


Posa aquí la URL del vídeo d'un youtube (opcinal)

vaya pues como ha cambiado el tema no? jeje... Aun así muy bueno<br />
By anònim over 7 years ago.
demasiado nivvel..
By anònim over 9 years ago.
Impresioante!!! se me han puesto los pelos de punta!!!
By anònim over 9 years ago.
ke gran Valls!! jo hi vaig ser dissabte al concert! jajaj i io k pensava k axo u feien dues guitarres..!xD
By Tonino over 9 years ago.
mencantaa! em liu una mica pero gracies valls! visca metallica
By Ricki over 9 years ago.
Hammet on y Pull off
By blackmogul over 9 years ago.
killo tengo un problemilla con una yamaha fg 720s soy novato y no tengo ni idea de cambiarle las cuerdas. me podriais ayudar? GRACIAS
By anònim over 9 years ago.
Valls testimo tiu xDDDDDDDDDDDD
By Dirk over 9 years ago.
Que clase tiene el maestro Valls! enter sandman y master of puppets llaman a tu puerta... knock, knock knocking on Valls door. Testeando la versión del tocamela en castellano, parece que todo va bien.
By TheBrowling over 9 years ago.
Gràcies Valls; als "novatillos" com jo també ens agraden els reptes. Salut.
By anònim over 9 years ago.

Aquest vídeo és treball propi del professor i representa la seva interpretació personal de la cançó. El material contingut en aquesta pàgina és exclusiu per a ús privat, de manera que es prohibeix la seva reproducció o retransmissió, així com el seu ús per a fins comercials.

Tocamela!

362 Vídeos de 56 professors amb 14.067 comentaris, vistos: 12.785.663 vegades.

Sobre nosaltres

TOCAMELA és una iniciativa de la Associació de Músics Online Toca; amb el principal objectiu de passar-ho bé, ensenyar i conquerir el món i esclavitzar la humanitat.



© 2018 Asoc. Toca & Albert Catalan | Condicions legals | Desenvolupat per Dospixels web development