Tocamela

Vídeo Tutorials de cançons fàcils

Vídeo Oficial Tocamela

Capricho Arabe Francisco Tarrega

Capricho Arabe

Has de tenir el Javascript activat i l'última versió del Flash player per poder veure aquest vídeo

18/09/2008 35.777 Vistes

Aquest vídeo està al(s) curso(s): Curs de Guitarra Clasica.
Nota de Capricho Arabe:
Cuidaaaaao, la sisena corda afinada en Re (baixar un to)
 
Els números de sota la tablatura són la digitació proposada per tocar el tema:
 
1: índex
2: mig
3: anular
4: petit
 
p=pull off

h=hammer on
 
PART 1
     


E----------------|------------------|---------------|------------------||
B------3-------3-|------2-------2---|-----3-------3-|------2-----------||
G------2-------2-|------2-------2---|-----2-------2-|------2-------2---||
D------3---3-----|--2-----------5---|-----3---3-----|--2---------------||
A----------------|----------0-------|---------------|----------0-------||
D--0-------------|------------------|-0-------------|------------------||
       3           1   3       4         3           1   3       2
       1                2                 1                2
       2                                  2
 
 
PART 2


E--1s5-------5-----|--------5-|-6h8p6-5-6-8-|-5-------5-----|--------5-|-6h8p6-5-6-8-|--8p5-------5------|
B--------6-------6-|------8---|-------------|-----6-------6-|------8---|-------------|--------6-------6--|
G--------7-------7-|----------|-------------|-----7-------7-|----------|-------------|--------7-------7--|
D------------------|----------|-------------|---------------|----------|-------------|-------------------|
A------------8-----|--7-------|-----0-------|---------8-----|--7-------|-----0-------|------------8------|
D----0-------------|----------|-------------|-0-------------|----------|-------------|----0--------------|
   1 1   2   1   2   3   4 1 2 4 2 1 2 4   1   2   1   2   3   4 1 2 4 2 1 2 4   4 1   2   1   2  
         3   4   3                                 3   4   3                                   3   4   3
 
PART 3

E----------7-9-10-12-|-13---13p12-10----------9h12p9-----------|
B-----9-10-----------|------10---------10------------11-8------|
G--------------------|------10---------10-----------------9----|
D--------------------|--------------------------------------11-|
A-7--------0---------|-------------0--------7---------0--------|
D--------------------|--0--------------------------------------|
1   3  4 1 3  4  3    4    4  3           1 2  4 2  4 1 2  4
1 1

PART 4 (que no existeix misteriosament en video..)

E------------------------------------|------------------|
B--10-------10-----------8p6-5h6-8p5-|-3s6-------7------|
G----------------7-------------------|-------7-------5--|
D-------7--------7-------------------|-------7-------7--|
A------------8-------7-------0-------|------------------|
D---0--------------------------------|---0--------------|
    3        4       3   4 2 1 2 4 1   1 1   3   3   2    
             2                               2

PART 5 i 6


E---------5-8-11--10|--8h10p8---6---5---3---6p5-10p9-12p10-13p12-|-15p12-10p9-12p10-6p5-8p6---0---------|
B-------7-----------|-----------8-------5------------------------|--------------------------8---3---2---|
G-----5-------------|--0------------3----------------------------|--------------------------------3---2-|
D---7---------------|--------------------------------------------|--------------------------------------|
A-5-----------------|-----------------------0--------------------|--0-------------------------------0---|
D-------------------|--------------------------------------------|--------------------------------------|
  1 2 1 3 1 3 4 3  1  3 1   1   4   3   2 1  2 1  4  2  2  1    4  1  2 1  4  2 2 1 4 2 4   2 1 2 1
             3
PART 7

E----------------------------------|---------------------------------||
B------3-------3-------4-------2---|-----3-------3-------4-------2---||
G----------------------0-------2---|---------------------0-------2---||
D------3-------3---------------2---|-----3-------3---------------2---||
A----------1---------------0-------|---------1---------------0-------||
D--0---------------1---------------|-0---------------1---------------||
       4   1   4   1   4       2         4   1   4   1   4       2
       3       3               1         3       3               1
                               1                                 1
Vídeo: Edició Albert Catalan.
ExpandirContraure

52 Comentaris. Comenta


Posa aquí la URL del vídeo d'un youtube (opcinal)

exacto
By valls over 9 years ago.
hola vall! muy bueno. no entendi la guitarra la afino en mi pero la sexta cuerda en re ? .saludos
By anònim over 9 years ago.
hola! Soy nueva en esto de leer cifrados.. que significa exactamente pull off y hammer on?? gracias! :)
By anònim over 10 years ago.
molt bona me esta ajudant molt gracies
By anònim over 10 years ago.
animat amb l'altra part de la peça!!vinga! :)
By drinkintim8 over 10 years ago.
tocas muy guapo....felicitaciones... mi correo es :felipebeltran19@hotmail.com

:) .... te rfelicito
By anònim over 10 years ago.
És la digitació proposada per tocar el tema:

1: índex

2: mig

3: anular

4: petit

Va be en temes complicadets això, probablement en canviï uns quants del que posa, el tema es que soni... es igual amb quin dit
By valls over 10 years ago.
muuuuuy bueno

By davide over 10 years ago.
aquesta canço es l'ostia pero voldria saber per a que son els numeros que eixen baix la tablatura, perque mai ho he vist. gracies
By anònim over 10 years ago.
molt be
By anònim over 10 years ago.

Aquest vídeo és treball propi del professor i representa la seva interpretació personal de la cançó. El material contingut en aquesta pàgina és exclusiu per a ús privat, de manera que es prohibeix la seva reproducció o retransmissió, així com el seu ús per a fins comercials.

Tocamela!

362 Vídeos de 56 professors amb 14.070 comentaris, vistos: 12.946.491 vegades.

Sobre nosaltres

TOCAMELA és una iniciativa de la Associació de Músics Online Toca; amb el principal objectiu de passar-ho bé, ensenyar i conquerir el món i esclavitzar la humanitat.



© 2019 Asoc. Toca & Albert Catalan | Condicions legals | Desenvolupat per Dospixels web development