Tocamela

Vídeo Tutorials de cançons fàcils

Vídeo Oficial Tocamela

Cliffs of Dover (Main riff) Eric Johnson

Cliffs of Dover (Main riff)

Has de tenir el Javascript activat i l'última versió del Flash player per poder veure aquest vídeo

14/03/2010 23.895 Vistes

Aquest vídeo està al(s) curso(s): Curs de Guitarra Tocamela, Curso de Rock.
Nota de Cliffs of Dover (Main riff):

Desde que vaig sentir aquest tema sempre ha estat una de les meves fites elèctriques, i si aprendre aquest riff ja deu ni do imagina't tot sencer. Algun dia qui sap...tot és posar-s'hi, disfruteu del riffillo almenys que és una passada.

Pel que fa a la tècnica de la ma dreta faig servir el sweep de dues cordes tant amunt com avall en moltes ocasions, realment em facilita el fet de tocar-ho, però també es podria tocar alternant pua contrapua, no sé exactament com ho fa Mr. Eric Johnson.

ExpandirContraure
Tablatura de Cliffs of Dover (Main riff):
------------------------------------------------------------------------
------------------------------------------------------------------------
----------17--14--1716--12-1614--11-14--11-12-14/16---12-1614--11----
--1412/14--14---------12--------12-----12------------12--------12------
------------------------------------------------------------------------
------------------------------------------------------------------------
                 

---------------|------------------------------------------------------------------
---------------|--------------------------------15--------------------------------
--12-11--------|--17--14-1716--12-1614--11-14------11-14/16---12-1614--11-12-11
-------14-12---|----14--------12--------12---------12---------12--------12--------
------------14-|------------------------------------------------------------------
---------------|------------------------------------------------------------------

    full
----------------------------------------------------------------------------------
---15^----------------------------------------------------------------------------
-----------17--14-1716--12--1614--11-14--11-12-14/16--12-1614--11-12-11--------
-14----------14--------12---------12-----12-----------12--------12--------14-12---
----------------------------------------------------------------------------------
----------------------------------------------------------------------------------


----------------------------------------------------------------------------------
---------------------------15---------------------------------------7--8-----8----
-------17--14-1716--11-14------11-14/16--12-1614--11-12-11-9-----7----7p0-0-9p0-
---------14--------12---------12--------12--------12----------97-7---------------
-14-12----------------------------------------------------------------------------
----------------------------------------------------------------------------------


---------------
---8------8----
-0--11p0-0-9p0-
---------------
---------------
---------------
ExpandirContraure

13 Comentaris. Comenta


Posa aquí la URL del vídeo d'un youtube (opcinal)

a ver si vemos alguna versión! <br />
<br />
M'agradaria fer notar que en algunes interpretacions no publicades del tema he detectat el mateix error, que és no deixar l'espai de temps entre les notes que s'ha de deixar. Si agafem qualsevol dels tresets que conformen la melodia ha de sonar el primer i el tercer, en el segon temps del treset no ha de sonar pas res.<br />
<br />
By valls over 8 years ago.
wow esta super gracias por la tab muchas graciasss : :)<br />
By anònim over 8 years ago.
mara meva :O
By joagga over 8 years ago.
uoooooo quin temooooooooooooon
By anònim over 9 years ago.
FANTASTIC!!!!!!!
By anònim over 9 years ago.
Cada vegada que penso que he escoltat el millor de tu, m' impresiones de sobte tiu...
By anònim over 9 years ago.
Amb el guitar hero faig un 100%

Amb la guitarra em falta bastant em sembla, de puta mare valls!!
By anònim over 9 years ago.
Memociono cada cop ke el sentoooo!!!!!!!!!

Havera si poseu el truñu del principi que es el que nom surt!!!!
By oldow over 9 years ago.
m'encanta aquest fragment!

Kasbeel a veure si veiem la teva versio d'això
By valls over 9 years ago.
moltes gràcies!
By anònim over 9 years ago.

Aquest vídeo és treball propi del professor i representa la seva interpretació personal de la cançó. El material contingut en aquesta pàgina és exclusiu per a ús privat, de manera que es prohibeix la seva reproducció o retransmissió, així com el seu ús per a fins comercials.

Tocamela!

362 Vídeos de 56 professors amb 14.067 comentaris, vistos: 12.830.030 vegades.

Sobre nosaltres

TOCAMELA és una iniciativa de la Associació de Músics Online Toca; amb el principal objectiu de passar-ho bé, ensenyar i conquerir el món i esclavitzar la humanitat.



© 2019 Asoc. Toca & Albert Catalan | Condicions legals | Desenvolupat per Dospixels web development