Tocamela

Vídeo Tutorials de cançons fàcils

Vídeo Oficial Tocamela

Como quintar el Bajo

Como quintar el Bajo

Has de tenir el Javascript activat i l'última versió del Flash player per poder veure aquest vídeo

09/02/2009 18.456 Vistes

Aquest vídeo està al(s) curso(s): Curs de baix.
Nota de Como quintar el Bajo:

Iep! quan tingui temps continuo la tablatura del rifillo, que és molt wapo.
Albert.

|-------------------5/0|---------------------------|
|---5---3-3---5---3----|---5---3-5-5/8-8-5---------|
|-----5---------5------|-----5-------------8-5-----|
|-3---------3----------|-3---------------------8-6-|

|-------------------5/0|---------------------------|
|---5---3-3---5---3----|---5---3-5-------5---------|
|-----5---------5------|-----5----~3-3-1-----3-----|
|-3---------3----------|-3-----------------1-------|


Agraïments a "El Capi" per deixar-nos l espai.

ExpandirContraure
Tablatura de Como quintar el Bajo:
Iep! quan tingui temps continuo la tablatura del rifillo, que és molt wapo.
Albert.

|-------------------5/0|---------------------------|
|---5---3-3---5---3----|---5---3-5-5/8-8-5---------|
|-----5---------5------|-----5-------------8-5-----|
|-3---------3----------|-3---------------------8-6-|

|-------------------5/0|---------------------------|
|---5---3-3---5---3----|---5---3-5-------5---------|
|-----5---------5------|-----5----~3-3-1-----3-----|
|-3---------3----------|-3-----------------1-------|
ExpandirContraure

36 Comentaris. Comenta


Posa aquí la URL del vídeo d'un youtube (opcinal)

Hola clodulfo me podrias decir porfabor como se llama la melodia que empiezas a tocar en el vídio.<br />
By anònim over 9 years ago.
hola!cual es el problema de mi bajo si la cuarta cuerda suena mas apagada que el resto de las cuerdas?(es un juego nuevo)
By anònim over 10 years ago.
Si queréis algun tipo de explicación sobre: "ajustar el alma del bajo", cambio de cuerdas, decidir un tipo de calibre, etc.. hacédmelo llegar.
By Clodulfo over 10 years ago.
Amigos!!! Hacedme llegar alguna petición de algun tema, algun riff que quisiérais que explicara. Gracias.
By Clodulfo over 10 years ago.
Sí que he hecho muchas actuaciones con la banda "Los hermanos de Rocco".
By Clodulfo over 10 years ago.
Hola amigos!! Lo que he comentado del quintaje para el bajo es exactamente igual para la guitarra.
By Clodulfo over 10 years ago.
ole, ole ole y ole!

A la espera de mes videos per baixistes
By anònim over 10 years ago.
tu no ets el baixista de los hermanos de roco¿ sk em sona verte vist tokan a agullana aket estiu
By anònim over 10 years ago.
eis per fi el baix!

que podrieu fer un video per iniciats al baix?

com funciona, com col·locar els dits etc...
By anònim over 10 years ago.
vava ja q estem fiquem-hi victor wooten xd
By anònim over 10 years ago.

Aquest vídeo és treball propi del professor i representa la seva interpretació personal de la cançó. El material contingut en aquesta pàgina és exclusiu per a ús privat, de manera que es prohibeix la seva reproducció o retransmissió, així com el seu ús per a fins comercials.

Tocamela!

362 Vídeos de 56 professors amb 14.070 comentaris, vistos: 12.924.826 vegades.

Sobre nosaltres

TOCAMELA és una iniciativa de la Associació de Músics Online Toca; amb el principal objectiu de passar-ho bé, ensenyar i conquerir el món i esclavitzar la humanitat.



© 2019 Asoc. Toca & Albert Catalan | Condicions legals | Desenvolupat per Dospixels web development