Tocamela

Vídeo Tutorials de cançons fàcils

Vídeo Oficial Tocamela

Johnny be good Chuck Berry

Johnny be good

Has de tenir el Javascript activat i l'última versió del Flash player per poder veure aquest vídeo

20/09/2009 44.210 Vistes

Aquest vídeo està al(s) curso(s): Curso de Rock, Curs de Guitarra Tocamela.
Johnny be good Backing Track


Tablatura de Johnny be good:
"Todo listo chicos, es un blues en Si. Atentos a los cambios y no os despisteis"

--------------
Acordes usados
--------------

   Sib Mib Fa
e|---------------------|
B|---------------------|
G|------3---5----------|
D|--3---1---3----------|
A|--1------------------|
E|---------------------|

Hay que acordarse que siempre hay que subir dos trastes con el meñique para darle ritmo ;-)

(Tienen que ser tocados en blues)

---------
Intro
---------

   NC                                            Sib
e|----------5/6-6-6-5/6-6-6-6-6-6------------------------------------|
B|-------6--5/6-6-6-5/6-6-6-6-6-6-9-8-6-6----------------------------|
G|---6h7--------------------------------6h7--------------------------|
D|-8----------------------------------------8-6--8-8-8-8-8-8-8-8-----|
A|-----------------------------------------------8-8-8-8-8-8-8-8-----|
E|-------------------------------------------------------------------|

                     Mib
e|--------------------------------6----------------------------------|
B|-6-----6----------------6-------6-------6-------6-------6----------|
G|-6-7-8-6h7----8b9--8b10---8b10----8b10----8b10-----8b10------------|
D|------------8------------------------------------------------------|
A|-------------------------------------------------------------------|
E|-------------------------------------------------------------------|

   Sib                                        Fa             Mib
e|-------------------------------------------6---9-8-6------------------------|
B|------6-------6------6------6------6---------6-------9-8-6-6---8---6--------|
G|-8b10---8b10----8b10---8b10---8b10---8b10------------------6h7-8---6h7-7----|
D|-----------------------------------------------------------------8-----8----|
A|----------------------------------------------------------------------------|
E|----------------------------------------------------------------------------|

   Sib               Fa
e|------------------------------------|
B|---6---8-6--------------------------|
G|---6h7-8-6h7-7/---------------------|
D|-8-----------8/---10-10-10-10-10----|
A|------------------8--8--8--8--8-----|
E|------------------------------------|

---------
Verso 1
---------

    Sib
Way down in Louisiana down to New Orleans

Way back up in the woods among the evergreens
      Mib
There stood a log cabin made of earth and wood
      Sib
Where lived a country boy named Johnny B. Goode
    Fa
Who never ever learned to read or write so well
             Sib
But he could play a guitar just like he's ringin' a bell

---------
Coro
---------

Sib     [Riff1]
Go Go
                [Riff1]
Go Johnny Go Go
                Mib  [Riff1]
Go Johnny Go Go Go
             Sib  [Riff1]
Go Johnny Go Go
                Fa  [Riff1]
Go Johnny Go Go Go
                 Sib
Johnny B. Goode

(Riff1)

e|---------------------|
B|-/9--9--9--11~------|
G|-/10-10-10-10~------|
D|---------------------|
A|---------------------|
E|---------------------|

---------
Verso 2
---------

(Tocar como en Verso 1)

He used to carry his guitar in a gunny sack
And sit beneath the trees by the railroad track
The engineers would see him sittin' in the shade
Strummin' to the rhythm that the driver made
When people passed him by they would stop and say
Oh my that little country boy sure can play

---------
Chorus
---------

Sib     [Riff1]
Go Go
                [Riff1]
Go Johnny Go Go
                Mib  [Riff1]
Go Johnny Go Go Go
             Sib  [Riff1]
Go Johnny Go Go
                Fa  [Riff1]
Go Johnny Go Go Go
                 Sib
Johnny B. Goode

---------
Solo
---------

   Sib
e|-----------------------------------------------------------6~~---|
B|-/9--9--9--11---6----------6------------8-------------6-8--6~~---|
G|-/10-10-10-10---8b10r8p6h8---6-----6----8-8-6h7---6h7------------|
D|-------------------------------8-6---8----------8----------------|
A|-----------------------------------------------------------------|
E|-----------------------------------------------------------------|

   Sib                                       Mib
e|-8b9--8p6-----6--------------------------------------------------|
B|----------8-6---8b9-8-6--------------------8-8-----8-8-----------|
G|------------------------8p6-----------6----8-8-6---8-8-6---------|
D|----------------------------8-8~~---8---8--------8-------8-------|
A|-----------------------------------------------------------------|
E|-----------------------------------------------------------------|

    Mib                Sib
e|-----------------------6-------10-------13~~--15-13-15b17r15p13-15-13~--|
B|--8---8-8b9r8---------------------12/14---------------------------------|
G|--8-6-8-8b9r8-6---6-6/8---8/10------------------------------------------|
D|----------------8-------------------------------------------------------|
A|------------------------------------------------------------------------|
E|------------------------------------------------------------------------|

   Fa                                                      Sib
e|-15----13-12-11-------------------------------------------------------------------|
B|----15----------13b15r13p11--------11-------11-------9------6------6--------------|
G|-----------------------------13b15----13b15----10b12----8b10---8b10---6-----------|
D|------------------------------------------------------------------------8-6-8~~---|
A|----------------------------------------------------------------------------------|
E|----------------------------------------------------------------------------------|

   Sib
e|---------------6--------------------------------------------------------------|
B|---------------6----8-6----8-6-----8-6---------8-8-----8-8---------8-6--------|
G|-x-x-x-----6h7------8-6h7--8-6h7---8-6h7~~----8-8-6---8-8-6h7-----8-6-7-7~---|
D|-x-x-x-8-8--------8--------------8-------------------8---------8-8-------8~---|
A|------------------------------------------------------------------------------|
E|------------------------------------------------------------------------------|

       Mib                                              Sib
e|-------------------------------------------------------------------|
B|-----6------6---6---6-------6------6---6---6---6-------------------|
G|---6-8b10~~~b10-b10-b10r8-6-8b10~~~b10-b10-b10-10r8p6--------------|
D|-8----------------------------------------------------8p6-8~~~-----|
A|-------------------------------------------------------------------|
E|-------------------------------------------------------------------|

                Fa                       Sib
e|-------------------------------------------------------------------|
B|-------------------------------------------------------------------|
G|----------------------------5-5-5----------------------------------|
D|-15\\\\\\\\\\\\-3-3-3-11\\\\\\\\\\\\\-----|
A|-------------------------------------------------------------------|
E|-------------------------------------------------------------------|

(Tocando con palm mute disminuyendo el tono gradualmente hacia abajo)

---------
Chorus
---------

Sib     [Riff1]
Go Go
                [Riff1]
Go Johnny Go Go
                Mib  [Riff1]
Go Johnny Go Go Go
             Sib  [Riff1]
Go Johnny Go Go
                Fa  [Riff1]
Go Johnny Go Go Go
                 Sib
Johnny B. Goode

---------
Verso 3
---------

(Tocar como verso 1)

Well his mama told him one day you will be a man
You will be the leader of a big old band
People gonna come from miles around
To listen to your playin' till the sun goes down
And one day maybe your name gonna be in lights
Sayin' Johnny B Goode tonight

---------
Chorus
---------

Sib     [Riff1]
Go Go
                [Riff1]
Go Johnny Go Go
                Mib  [Riff1]
Go Johnny Go Go Go
             Sib  [Riff1]
Go Johnny Go Go
                Fa  [Riff1]
Go Johnny Go Go Go
                 Sib
Johnny B. Goode

(Repetir y hacer Fade Out)
ExpandirContraure

47 Comentaris. Comenta


Posa aquí la URL del vídeo d'un youtube (opcinal)

Roberto sortint per tv3! haha Ja deia que em sonava..
By anònim over 6 years ago.
No se puede ver el vídeo de Johnny be good; hay mas que no se ven , durante un tiempo no podia ver ninguno y depues reapareciteis pero algunos siguen sin verse.Y me quiero casar con la entrenadora de güater polo Maria,que enseña guitarra que voz que canción yo me sentaría a escucharla toda mi vida.las letras de las canciones están en algún lado?
By anònim over 6 years ago.
ESPECTACULAAR!!!<br />
By anònim over 8 years ago.
Hola Betix! Pues no sabria decirte, hace mucho tiempo que lo grabe y no recuerdo que preset era... Lo que si recuerdo es que es el mismo preset que usaba para tocar "Another brick in the wall" y lo tocaba desde Guitar Rig 3 con el ampli Hig White. No recuerdo mas



Siento no serte de mas ayuda, compañero ;)
By toletum91zgz over 9 years ago.
Gracias por la expliacioon =] me podrias decir si el efecto que se usa es un overdrive o es completa distorcion



atte : betix
By anònim over 9 years ago.
el mejor de los mejores

By anònim over 10 years ago.
Bueno, si, el mejor, vale... Pero el mejor de los peores! :cool:
By toletum91zgz over 10 years ago.
roberto el mejor¡¡¡¡¡¡¡
By anònim over 10 years ago.
Anonimo de hace 36 min:

Pues animo!!! Porque la verdad, tambien tiene su miga ;)



Anonimo de hace 2 dias:

Subir subire mas cosas, pero respecto al que mejores temas tengo te equivocas... Hay cada temazo que flipas xD



Saludos y gracias por los comentarios!
By toletum91zgz over 10 years ago.
tu empezaste a tocar por Dire Straits,pero yo me lo tome enserio por esta xd
By anònim over 10 years ago.

Aquest vídeo és treball propi del professor i representa la seva interpretació personal de la cançó. El material contingut en aquesta pàgina és exclusiu per a ús privat, de manera que es prohibeix la seva reproducció o retransmissió, així com el seu ús per a fins comercials.

Tocamela!

362 Vídeos de 56 professors amb 14.070 comentaris, vistos: 12.925.098 vegades.

Sobre nosaltres

TOCAMELA és una iniciativa de la Associació de Músics Online Toca; amb el principal objectiu de passar-ho bé, ensenyar i conquerir el món i esclavitzar la humanitat.



© 2019 Asoc. Toca & Albert Catalan | Condicions legals | Desenvolupat per Dospixels web development