Tocamela

Vídeo Tutorials de cançons fàcils

Vídeo Oficial Tocamela

Tu Vecina De Cara a la Pared

Tu Vecina

Has de tenir el Javascript activat i l'última versió del Flash player per poder veure aquest vídeo

15/12/2009 12.164 Vistes
Tu Vecina Acords:
Sol
sol
Do7
do7
Re
re
Do
do
Fa
fa
Tablatura de Tu Vecina:
E--------------------------------------------------------------------------------------
B--------------------------------------------------------------------------------------
G--------------------------------------------------------------------------------------
D-------------------------------------1------------------------3-----------------------
A-----------1----2--3------1--3-----3---3--4--5-----5-----5--4---3-----3---1-----------
E --3--1--3---3------------------------------------------------------------------------

Per anònim.
ExpandirContraure

12 Comentaris. Comenta


Posa aquí la URL del vídeo d'un youtube (opcinal)

son unos genios muchachos!! yo estoy aprendiendo a tocar guitarra y con sus videos me resulta muy facis aprender. muchas gracias y sigan asi chicos<br />
By anònim over 8 years ago.
Dios, que buena la canción!!!! no la puedo dejar de tatarear xD
By Josebe9 over 10 years ago.
aqui donde los ven, estos dos tipos tienen la mejor banda de rock que hay en barcelona, con unos directos que son para flipar. Buenissssimos!!! De verdad se lo recomiendo. Saludos a argentina
By anònim over 10 years ago.
jajajajaja me acabo de aficionar a estos dosss

jajaja

les buenisimoooo xD
By anònim over 10 years ago.
Tengo una duda el DO7 que utiliza en la cancion es diferente al que aparece indicado debajo del video ¿no?

Muy buenala cancion  para tocarla en fiestas y reuniones. Os felicito. Un saludo desde Andalucia
By anònim over 10 years ago.
Maaaadre mia!!! Pero vaya dos!!!! jajajajajajaja



Sinceramente, voy a empezar a dejar de ver la musica para pasar en todos los videos directamente a las tomas falsas jajajajaja. Muy grandes!!!!, a ver si nos vemos mas por aqui.



Un saludo!!! =)
By toletum91zgz over 10 years ago.
pedazo de riff

E--------------------------------------------------------------------------------------

B--------------------------------------------------------------------------------------

G--------------------------------------------------------------------------------------

D-------------------------------------1-----------------------3-----------------------

A-------------1----2--3------1--3------3--3--4--5-----5-----5--4--3-----3---1--

E --3--1--3----3---------------------------------------------------------------------

By anònim over 10 years ago.
www.decaraalapared.com

la canción te la puedes bajar gratis!
By anònim over 10 years ago.
penjeu la tablatura de la introo siusplau :)
By anònim over 10 years ago.
oye esta genial, podrias poner ademas de los acordes el tab del punteo inicial. grax
By anònim over 10 years ago.

Aquest vídeo és treball propi del professor i representa la seva interpretació personal de la cançó. El material contingut en aquesta pàgina és exclusiu per a ús privat, de manera que es prohibeix la seva reproducció o retransmissió, així com el seu ús per a fins comercials.

Tocamela!

362 Vídeos de 56 professors amb 14.071 comentaris, vistos: 12.972.333 vegades.

Sobre nosaltres

TOCAMELA és una iniciativa de la Associació de Músics Online Toca; amb el principal objectiu de passar-ho bé, ensenyar i conquerir el món i esclavitzar la humanitat.



© 2019 Asoc. Toca & Albert Catalan | Condicions legals | Desenvolupat per Dospixels web development