Tocamela

Vídeo Tutorials de cançons fàcils

Vídeo Oficial Tocamela

Misirlou (Pulp fiction) Dick Dale&The Dek Tones

Misirlou (Pulp fiction)

Has de tenir el Javascript activat i l'última versió del Flash player per poder veure aquest vídeo

14/05/2010 24.006 Vistes

Aquest vídeo està al(s) curso(s): Curso de Rock, Curs de Guitarra Tocamela.
Misirlou (Pulp fiction) Acords:
Mi
mi
Fa
fa
Lam
lam
Sim
sim
Re#
re_
Tablatura de Misirlou (Pulp fiction) :
Tabulat per algú que s'ho havia mirat i tal, hi ha algunes diferències per tant feu-li cas

Artist: Dick Dale
 Album: Pulp Fiction soundtrack
 Song: Misirlou
 Transcribed by Franciszek Rze¶ko 
 for suggestions or corrections contact me: saintek@poczta.fm
      - slide down
 /     - slide up
 h     - hammer on
 p     - pull off    
 ()    - ghost note
 Standard tuning
 
 Solo 1
 e |---------|---------|---------|---------|
 B |---------|---------|---------|---------|
 G |---------|---------|---------|---------|
 D |---------|---------|---------|---------|
 A |---------|---------|---------|---------|
 E |-0-0-0-0-|-0-0-0-0-|-0-0-0-0-|-0-0-0-0-|
 
 e |---------|---------|---------|---------|
 B |---------|---------|---------|---------|
 G |---------|---------|---------|---------|
 D |---------|---------|---------|---------|
 A |---------|---------|---------|---------|
 E |-0-0-0-0-|-0-0-0-0-|-0-0-0-0-|-0-0-0-0-|
 
 e |---------|---------|---------|---------|
 B |---------|---------|---------|---------|
 G |---------|---------|---------|---------|
 D |---------|---------|---------|---------|
 A |---------|---------|---------|---------|
 E |-0-0-0-0-|-0-0-0-0-|-4-4-4-4-|-5-5-5-5-|
 
 e |---------|---------|------------|---------|
 B |---------|---------|------------|---------|
 G |---------|---------|------------|---------|
 D |---------|---------|------------|---------|
 A |---------|---------|------------|---------|
 E |-7-7-7-7-|-7-7-7-7-|-8/11-11-11-|-8-8-8-8-|
 
 e |---------|---------|---------|---------|
 B |---------|---------|---------|---------|
 G |---------|---------|---------|---------|
 D |---------|---------|---------|---------|
 A |---------|---------|---------|---------|
 E |-7-7-7-7-|-7-7-7-7-|-7-7-7-7-|-7-7-7-7-|
 
 e |---------|---------|---------|---------|
 B |---------|---------|---------|---------|
 G |---------|---------|---------|---------|
 D |---------|---------|---------|---------|
 A |---------|---------|---------|---------|
 E |-7-7-7-7-|-7-7-7-7-|-7-7-7-7-|-----|
 
 e |---------|---------|---------|---------|
 B |---------|---------|---------|---------|
 G |---------|---------|---------|---------|
 D |---------|---------|---------|---------|
 A |---------|---------|---------|---------|
 E |-0-0-0-0-|-0-0-0-0-|-4-4-4-4-|-5-5-5-5-|
 
 e |---------|---------|------------|---------|
 B |---------|---------|------------|---------|
 G |---------|---------|------------|---------|
 D |---------|---------|------------|---------|
 A |---------|---------|------------|---------|
 E |-7-7-7-7-|-7-7-7-7-|-8/11-11-11-|-8-8-8-8-|
 
 e |---------|---------|---------|---------|
 B |---------|---------|---------|---------|
 G |---------|---------|---------|---------|
 D |---------|---------|---------|---------|
 A |---------|---------|---------|---------|
 E |-7-7-7-7-|-7-7-7-7-|-7-7-7-7-|-7-7-7-7-|
 
 e |---------|---------|---------|---------|
 B |---------|---------|---------|---------|
 G |---------|---------|---------|---------|
 D |---------|---------|---------|---------|
 A |---------|---------|---------|---------|
 E |-7-7-7-7-|-7-7-7-7-|-7-7-7-7-|-7-7-7-7-|
 
 
 e |---------|---------|---------|---------|
 B |---------|---------|---------|---------|
 G |---------|---------|---------|---------|
 D |---------|---------|---------|---------|
 A |---------|---------|---------|---------|
 E |-8-8-8-8-|-7-7-7-7-|-8-8-7-7-|-5-5-5-5-|
 
 e |---------|---------|---------|---------|
 B |---------|---------|---------|---------|
 G |---------|---------|---------|---------|
 D |---------|---------|---------|---------|
 A |---------|---------|---------|---------|
 E |-7-7-7-7-|-5-5-5-5-|-7-7-5-5-|-4-4-4-4-|
 
 e |---------|---------|---------|---------|
 B |---------|---------|---------|---------|
 G |---------|---------|---------|---------|
 D |---------|---------|---------|---------|
 A |---------|---------|---------|---------|
 E |-4-4-4-4-|-4-4-4-4-|-4-4-4-4-|-4-4-4-4-|
 
 e |---------|---------|---------|---------|
 B |---------|---------|---------|---------|
 G |---------|---------|---------|---------|
 D |---------|---------|---------|---------|
 A |---------|---------|---------|---------|
 E |-4-4-4-4-|-4-4-4-4-|-4-4-4-4-|-4-4-4-4-|
 
 e |---------|---------|---------|---------|
 B |---------|---------|---------|---------|
 G |---------|---------|---------|---------|
 D |---------|---------|---------|---------|
 A |---------|---------|---------|---------|
 E |-7-7-7-7-|-5-5-5-5-|-7-7-5-5-|-4-4-4-4-|
 
 e |---------|---------|---------|---------|
 B |---------|---------|---------|---------|
 G |---------|---------|---------|---------|
 D |---------|---------|---------|---------|
 A |---------|---------|---------|---------|
 E |-5-5-5-5-|-4-4-4-4-|-5-5-4-4-|-1---4---|
 
 e |---------|---------|---------|---------|
 B |---------|---------|---------|---------|
 G |---------|---------|---------|---------|
 D |---------|---------|---------|---------|
 A |---------|---------|---------|---------|
 E |-0-0-0-0-|-0-------|(0)------|(0)------|
 
 
 Solo 2
 e |---------|-----|-----|-----|
 B |---------|-----|-----|-----|
 G |---------|---------|---------|---------|
 D |---------|---------|---------|---------|
 A |---------|---------|---------|---------|
 E |---------|---------|---------|---------|
 
 e |-0---0-0-|-0-------|-4-4-4-4-|-5-5-5-5-|
 B |-0---0-0-|-0-------|---------|---------|
 G |---------|---------|---------|---------|
 D |---------|---------|---------|---------|
 A |---------|---------|---------|---------|
 E |---------|---------|---------|---------|
 
 e |-7-7-7-7-|-7-7-7-7-|-8/11-11-11-|-8-8-8-8-|
 B |---------|---------|------------|---------|
 G |---------|---------|------------|---------|
 D |---------|---------|------------|---------|
 A |---------|---------|------------|---------|
 E |---------|---------|------------|---------|
 
 e |-7-7-7-7-|-7-7-7-7-|-7-7-7---|-7-7-7-7-|
 B |---------|---------|---------|---------|
 G |---------|---------|---------|---------|
 D |---------|---------|---------|---------|
 A |---------|---------|---------|---------|
 E |---------|---------|---------|---------|
 
 e |-7-7-7-7-|-7-7-7-7-|-----|-----|
 B |---------|---------|---------|---------|
 G |---------|---------|---------|---------|
 D |---------|---------|---------|---------|
 A |---------|---------|---------|---------|
 E |---------|---------|---------|---------|
 
 e |-0-0-0-0-|-0-0-0-0-|-4-4-4-4-|-5-5-5-5-|
 B |---------|---------|---------|---------|
 G |---------|---------|---------|---------|
 D |---------|---------|---------|---------|
 A |---------|---------|---------|---------|
 E |---------|---------|---------|---------|
 
 e |-7-7-7-7-|-7-7-7-7-|-8/11-11-11-|-8-8-8-8-|
 B |---------|---------|------------|---------|
 G |---------|---------|------------|---------|
 D |---------|---------|------------|---------|
 A |---------|---------|------------|---------|
 E |---------|---------|------------|---------|
 
 e |-7---7-7-|-7---7-7-|-7-----7-|-7--7--7-|
 B |---------|---------|---------|---------|
 G |---------|---------|---------|---------|
 D |---------|---------|---------|---------|
 A |---------|---------|---------|---------|
 E |---------|---------|---------|---------|
 
 e |-7---7-7-|-7---7-7-|-7---7-7-|-7---7---|
 B |---------|---------|---------|---------|
 G |---------|---------|---------|---------|
 D |---------|---------|---------|---------|
 A |---------|---------|---------|---------|
 E |---------|---------|---------|---------|
 
 E |-8-8-8-8-|-7-7-7-7-|-8-8-7-7-|-5-5-5-5-|
 B |---------|---------|---------|---------|
 G |---------|---------|---------|---------|
 D |---------|---------|---------|---------|
 A |---------|---------|---------|---------|
 E |---------|---------|---------|---------|
 
 e |-7-7-7-7-|-5-5-5-5-|-7-7-5-5-|-4---0---|
 B |---------|---------|---------|---------|
 G |---------|---------|---------|---------|
 D |---------|---------|---------|---------|
 A |---------|---------|---------|---------|
 E |---------|---------|---------|---------|
 
 e |-4-4-4-4-|-4-4-4-4-|-4-4-4-4-|-4---4-4-|
 B |---------|---------|---------|---------|
 G |---------|---------|---------|---------|
 D |---------|---------|---------|---------|
 A |---------|---------|---------|---------|
 E |---------|---------|---------|---------|
 
 e |-4---4-4-|-4---4-4-|-4-4-4-4-|-4---4---|
 B |---------|---------|---------|---------|
 G |---------|---------|---------|---------|
 D |---------|---------|---------|---------|
 A |---------|---------|---------|---------|
 E |---------|---------|---------|---------|
 
 e |-7-7-7-7-|-5-5-5-5-|-7-7-5-5-|-4-4-4-4-|
 B |---------|---------|---------|---------|
 G |---------|---------|---------|---------|
 D |---------|---------|---------|---------|
 A |---------|---------|---------|---------|
 E |---------|---------|---------|---------|
 
 e |-5-5-5-5-|-4-4-4-4-|-5-5-4---|-1---4---|
 B |---------|---------|---------|---------|
 G |---------|---------|---------|---------|
 D |---------|---------|---------|---------|
 A |---------|---------|---------|---------|
 E |---------|---------|---------|---------|
 
 e |-0-------|-0-------|---------|---------|
 B |---------|-0-------|---------|---------|
 G |---------|---------|---------|---------|
 D |---------|---------|---------|---------|
 A |---------|---------|---------|---------|
 E |---------|---------|---------|---------|
 
 
 Solo 3
 e |---------|---------|---------|---------|
 B |---------|---------|---------|---------|
 G |---------|---------|---------|---------|
 D |---------|---------|---------|---------|
 A |---------|---------|---------|---------|
 E |-5-5-5-5-|-5-5-5-5-|-5-5-5-5-|-5-5-5-5-|
 
 e |---------|---------|---------|---------|
 B |---------|---------|---------|---------|
 G |---------|---------|---------|---------|
 D |---------|---------|---------|---------|
 A |---------|---------|---------|---------|
 E |-5-5-5-5-|-5-5-5-5-|-5-5-5-5-|-4-4-5-5-|
 
 e |---------|---------|---------|---------|
 B |---------|---------|---------|---------|
 G |---------|---------|---------|---------|
 D |---------|---------|---------|---------|
 A |---------|---------|---------|---------|
 E |-7-7-7-7-|-7-7-7-7-|-7-7-7-7-|-7-7-7-7-|
 
 e |---------|---------|---------|---------|
 B |---------|---------|---------|---------|
 G |---------|---------|---------|---------|
 D |---------|---------|---------|---------|
 A |---------|---------|---------|---------|
 E |-7-7-7-7-|-7-7-7-7-|-7-7-7-7-|-5-5-7-7-|
 
 e |---------|---------|---------|---------|
 B |---------|---------|---------|---------|
 G |---------|---------|---------|---------|
 D |---------|---------|---------|---------|
 A |---------|---------|---------|---------|
 E |-8-8-8-8-|-8-8-8-8-|-8-8-8-8-|-7-7-8-8-|
 
 e |-------------|-------------|-------------|-------------|
 B |-------------|-------------|-------------|-------------|
 G |-------------|-------------|-------------|-------------|
 D |-------------|-------------|-------------|-------------|
 A |-------------|-------------|-------------|-------------|
 E |-11-11-11-11-|-11-11-11-11-|--8--8--8----|-11-11-11----|
 
 e |-------------|-------------|-------------|-------------|
 B |-------------|-------------|-------------|-------------|
 G |-------------|-------------|-------------|-------------|
 D |-------------|-------------|-------------|-------------|
 A |-------------|-------------|-------------|-------------|
 E |-12-12-12-12-|-12-12-12-12-|-12-12-12-12-|-12-12-12-12-|
 
 e |-------------|-------------|-------------|-------------|
 B |-------------|-------------|-------------|-------------|
 G |-------------|-------------|-------------|-------------|
 D |-------------|-------------|-------------|-------------|
 A |-------------|-------------|-------------|-------------|
 E |-12-12-12-12-|-12-12-12-12-|-12-12-12-12-|-12-12-12-12-|
 
 e |-------------|-------------|-------------|-------------|
 B |-------------|-------------|-------------|-------------|
 G |-------------|-------------|-------------|-------------|
 D |-------------|-------------|-------------|-------------|
 A |-------------|-------------|-------------|-------------|
 E |-13-13-13-13-|-12-12-12-12-|-13-13-12-12-|-10-10-10-10-|
 
 e |-------------|-------------|-------------|-------------|
 B |-------------|-------------|-------------|-------------|
 G |-------------|-------------|-------------|-------------|
 D |-------------|-------------|-------------|-------------|
 A |-------------|-------------|-------------|-------------|
 E |-12-12-12-12-|-10-10-10-10-|-12-12-10-10-|--8--8--8--8-|
 
 e |---------|---------|---------|---------|
 B |---------|---------|---------|---------|
 G |---------|---------|---------|---------|
 D |---------|---------|---------|---------|
 A |---------|---------|---------|---------|
 E |-7-7-7-7-|-7-7-7-7-|-7-7-7-7-|-7-7-7-7-|
 
 e |---------|---------|---------|---------|
 B |---------|---------|---------|---------|
 G |---------|---------|---------|---------|
 D |---------|---------|---------|---------|
 A |---------|---------|---------|---------|
 E |-7-7-7-7-|-7-7-7-7-|-7-7-7-7-|-7-7-7-7-|
 
 e |-------------|-------------|-------------|-------------|
 B |-------------|-------------|-------------|-------------|
 G |-------------|-------------|-------------|-------------|
 D |-------------|-------------|-------------|-------------|
 A |-------------|-------------|-------------|-------------|
 E |-10-10-10-10-|--8--8--8--8-|-10-10--8--8-|--7--7--7--7-|
 
 e |-------------|-------------|-------------|-------------|
 B |-------------|-------------|-------------|-------------|
 G |-------------|-------------|-------------|-------------|
 D |-------------|-------------|-------------|-------------|
 A |-------------|-------------|-------------|-------------|
 E |--5----------|--4----------|--5-----4--4-|--1--1--1--1-|
 
 e |---------|---------|---------|---------|
 B |---------|---------|---------|---------|
 G |---------|---------|---------|---------|
 D |---------|---------|---------|---------|
 A |---------|---------|---------|---------|
 E |-0-0-0-0-|-0-0-0-0-|-0-0-0-0-|-0-0-0-0-|
 
 e |---------|---------|---------|---------|
 B |---------|---------|---------|---------|
 G |---------|---------|---------|---------|
 D |---------|---------|---------|---------|
 A |---------|---------|---------|---------|
 E |-0-0-0-0-|-0-0-0-0-|-0-0-0-0-|-0-0-0-0-|
ExpandirContraure

13 Comentaris. Comenta


Posa aquí la URL del vídeo d'un youtube (opcinal)

funcionant!
By Albert over 6 years ago.
no va el video
By anònim over 6 years ago.
yeah que boooona!
By anònim over 8 years ago.
molt bé nanus! seguiu així ;)
By anònim over 8 years ago.
Ahhhhh! Tarantino ese si que es grande!!!!!!!. Por cierto una cancion guapa de conocer
By abraham_pf over 8 years ago.
El tema se llama



Miserlou de Dick Dale and His Del Tones



http://www.youtube.com/watch?v=ZIU0RMV_II8
By anònim over 8 years ago.
a quedat guay! pa no saber ni com es diu ni com es toca... :D
By bendo over 8 years ago.
no, n oes eixa cancçò, és al qeu ells diuen
By anònim over 8 years ago.
Crec k la canço és  Pump It  de Black Eyed Peas  
By anònim over 8 years ago.
Que grandes jajajaajja. Este tema me lo tengo que sacar que esta tremendo y es facilon (dentro de lo que cabe) xD
By 4c1d-N2O over 8 years ago.

Aquest vídeo és treball propi del professor i representa la seva interpretació personal de la cançó. El material contingut en aquesta pàgina és exclusiu per a ús privat, de manera que es prohibeix la seva reproducció o retransmissió, així com el seu ús per a fins comercials.

Tocamela!

362 Vídeos de 56 professors amb 14.066 comentaris, vistos: 12.679.943 vegades.

Sobre nosaltres

TOCAMELA és una iniciativa de la Associació de Músics Online Toca; amb el principal objectiu de passar-ho bé, ensenyar i conquerir el món i esclavitzar la humanitat.



© 2018 Asoc. Toca & Albert Catalan | Condicions legals | Desenvolupat per Dospixels web development