Tocamela

Vídeo Tutorials de cançons fàcils

Vídeo Oficial Tocamela

Dr Stein - Main Riff Helloween

Dr Stein - Main Riff

Has de tenir el Javascript activat i l'última versió del Flash player per poder veure aquest vídeo

16/12/2009 12.183 Vistes

Aquest vídeo està al(s) curso(s): Curs de Metal.
Tablatura de Dr Stein - Main Riff:
e:-|--------------------------------------------------------|
B:-|--------------------------------------------------------|
G:-|.--4----------------------------------------------------|
D:-|.--5p2--2--2--2--2--2--2--2---4-------------------------|
A:-|------------------------------5p2--2--2--2--2--2--2--2--|
E:-|--------------------------------------------------------|
           pm...................       pm...................
  
  
e:-----------------------------------------------|
B:-----------------------------------------------|
G:-------------------------4---------------------|
D:----------------------0--2---2--2--2--2--2--2--|
A:-3--2--3--2--3--2--3---------------------------|
E:-----------------------------------------------|
                              pm................
  
  
e:-|--------------------------------------------------------|
B:-|--------------------------------------------------------|
G:-|.--4----------------------------------------------------|
D:-|.--5p2--2--2--2--2--2--2--2---4-------------------------|
A:-|------------------------------5p2--2--2--2--2--2--2--2--|
E:-|--------------------------------------------------------|
           pm...................       pm...................
  
  
e:--------------------------------------------|
B:--------------------------------------------|
G:--------------------------------------------|
D:---------------------------------------7----|
A:-3--2--3--2--3--2---------2------------5----|
E:-------------------3--2---0--0--0--0--------|
                               pm......
ExpandirContraure

3 Comentaris. Comenta


Posa aquí la URL del vídeo d'un youtube (opcinal)

Muy buena... me ari falta más partituras de esta música <<Helloween>>

agregame: andreu-8-@hotmail.com
By anònim over 9 years ago.
0.11, afinacio estandard,



Albert la part tocada lenta surt a mitges
By valls over 9 years ago.
Quines cordes utilitzes?

una abraçada! i gràcies
By anònim over 9 years ago.

Aquest vídeo és treball propi del professor i representa la seva interpretació personal de la cançó. El material contingut en aquesta pàgina és exclusiu per a ús privat, de manera que es prohibeix la seva reproducció o retransmissió, així com el seu ús per a fins comercials.

Tocamela!

362 Vídeos de 56 professors amb 14.067 comentaris, vistos: 12.785.635 vegades.

Sobre nosaltres

TOCAMELA és una iniciativa de la Associació de Músics Online Toca; amb el principal objectiu de passar-ho bé, ensenyar i conquerir el món i esclavitzar la humanitat.



© 2018 Asoc. Toca & Albert Catalan | Condicions legals | Desenvolupat per Dospixels web development