Tocamela

Vídeo Tutorials de cançons fàcils

Vídeo Oficial Tocamela

El BENDING I VIBRATO (RELOADED)

El BENDING I VIBRATO (RELOADED)

Has de tenir el Javascript activat i l'última versió del Flash player per poder veure aquest vídeo

10/04/2011 15.162 Vistes
Tablatura de El BENDING I VIBRATO (RELOADED):
h            hb.13_^_^_     h  p  p         fb.15_^_^_

--------------10-12----13----12---------12---13-12-10----10------------
-----------10-----------------------------------------13----13---------
--------10-------------------------------------------------------------
--12-------------------------------------------------------------------
-----------------------------------------------------------------------
-----------------------------------------------------------------------


            sl              fb.17_^_fb.17_^_br___    h    sl

----------------------12-----------------------------------------------
----------13/15-------------15------15------------11---13-\-10---------
-------12--------------------------------------------------------------
--14-------------------------------------------------------------------
-----------------------------------------------------------------------
-----------------------------------------------------------------------


            fb.12_^_br_ ^_^_^_^   fb.12_^_br_ ^_^_  fb.12_^_br_ ^_^_^

---------8---------------------8---------------------------------------
--10/12-----10--------------------10----------------10-----------------
--9--------------------8---------------------7-----------------9-------
-----------------------------------------------------------------------
-----------------------------------------------------------------------
-----------------------------------------------------------------------


     p.m p.m.(  3  ) (  3  ) (  3  ) (   3  ) (   3  ) (   3  ) fb.15_^

-------------------------------------------------------10-12-13-13-----
-------------------------------------10-12-13-10-12-13-----------------
--9------------------9-10-12-9-10-12-----------------------------------
-----12--10--9-10-12---------------------------------------------------
-----------------------------------------------------------------------
-----------------------------------------------------------------------



_br__ ^_^_^_^_^      fb.17_^_^_^_          sl    h  p    sl_^_^_^_     

-----13--------------15----------15--13--15\12----13-12----------------
-----------------11--------------------------------------/15-----------
------------------------------------------------------------------12---
-----------------------------------------------------------------------
-----------------------------------------------------------------------
-----------------------------------------------------------------------




  sl     fb.17_^_ fb.17_^_br_  ^_^_^_               fb.15_^_^ fb.15br__

-----------------------------------------------------------------------
13-/-15--15-------15-----------13-----------12--13--13--------13-------
----------------------------------------14-----------------------------
-----------------------------------------------------------------------
-----------------------------------------------------------------------
-----------------------------------------------------------------------


   ^_^_^_  h       sl ^_^_^_     hb.8 br__^_^_^sl     h     _^__^__^___

-----------------------------------------------------------------------
---7-------9-10----\5--------------------------------------------------
-------------------------------5/7-------\5----\4---4--5---------------
----------------------------------------------------------5/7----------
-----------------------------------------------------------------------
-----------------------------------------------------------------------
ExpandirContraure

13 Comentaris. Comenta


Posa aquí la URL del vídeo d'un youtube (opcinal)

Si me haces de profesor particular soy capaz de hacerte vibrar a ti, a la guitarra o lo que quieras. <br />
<br />
María
By anònim over 6 years ago.
wich song is this ?? <br />
By anònim over 7 years ago.
com ho feu per treure els sons amb aquesta qualitat? Els viedos més nous sonen molt bé
By anònim over 7 years ago.
Perfecte Albert!!!!!!! Moltes gràcies! :D
By Gerard Merino over 8 years ago.
Per fi.. ja està.....
By Albert over 8 years ago.
Edugd, és que el vídeo és del futur.... (gràcies per avisar, solucionat)
By Albert over 8 years ago.
com és que posa 11/05/2011 si encara estem a Abril (04)??
By Edugd over 8 years ago.
Iep, estic tornant a pujar el vídeo... (curradíssim com sempre, Valls)
By Albert over 8 years ago.
pues a una vesión de still got the blues, muy buen video valls, a ver si podeis mirar de arreglar el tema del desfase del video
By anònim over 8 years ago.
A que canción pertenece la intro que toca?
By anònim over 8 years ago.

Aquest vídeo és treball propi del professor i representa la seva interpretació personal de la cançó. El material contingut en aquesta pàgina és exclusiu per a ús privat, de manera que es prohibeix la seva reproducció o retransmissió, així com el seu ús per a fins comercials.

Tocamela!

362 Vídeos de 56 professors amb 14.067 comentaris, vistos: 12.785.621 vegades.

Sobre nosaltres

TOCAMELA és una iniciativa de la Associació de Músics Online Toca; amb el principal objectiu de passar-ho bé, ensenyar i conquerir el món i esclavitzar la humanitat.



© 2018 Asoc. Toca & Albert Catalan | Condicions legals | Desenvolupat per Dospixels web development