Tocamela

Vídeo Tutorials de cançons fàcils

Vídeo Oficial Tocamela

Enter Sandman [Main Riff] Metallica

Enter Sandman [Main Riff]

Has de tenir el Javascript activat i l'última versió del Flash player per poder veure aquest vídeo

22/01/2010 24.085 Vistes
Enter Sandman [Main Riff] Backing Track


Tablatura de Enter Sandman [Main Riff]:
Tabber: Trivium_man


Intro:   (Play 12 times)
======

1|---------------------------------------------------------------------------
2|---------------------------------------------------------------------------
3|---------------------------------------------------------------------------
4|------------5--------------------------------------------------------------
5|--------7---------------7--------------------------------------------------
6|----0-----------6---5------------------------------------------------------


Rhythm Fill 1:
==============



1|---------------------------------------------------------------------------
2|---------------------------------------------------------------------------
3|---------------------------------------------------------------------------
4|---------------------------------------------------------------------------
5|--2---------------------------/7------------------------------/7-----------
6|--0---0---0---0---0---0---0--------0---0---0---0---0---0---0---------------

                                     |-------------3x------------|





1|---------------------------------------------------------------------------
2|---------------------------------------------------------------------------
3|---------------------------------------------------------------------------
4|---------------------------------------------------------------------------
5|----------7------------------32-------------7-------------------32-------
6|--0---0------6---0---0---0---1�-----0---0-------6---5---0---0---1�-------

    |-------------4x-------------|     |--------------8x-------------|

                 When playing the F5-E5 pulloffs, the E5 is not strummed.
                          * Skip the F5-E5 pulloff on the 8th repetition.


Rhythm Fill 2:
==============

   E5                        G5  E5  G5  E5 F#5  G5 F#5

             sl       V          PM------------------|

1|---------------------------------------------------------------------------
2|---------------------------------------------------------------------------
3|---------------------------------------------------------------------------
4|---------------------------------------------------------------------------
5|--2---2----/7--------------5-------5-------4---5---4-----------------------
6|--0---0---------6---5------3---0---3---0---2---3---2-----------------------

    |-------3x--------|

(Repeat Rhythm Fill 2 once)








Rhythm Fill 3:
==============

    E5                          F5 E5                              F5 E5

        PM------------------|     P    PM-----------------------|   P

1|---------------------------------------------------------------------------
2|---------------------------------------------------------------------------
3|---------------------------------------------------------------------------
4|---------------------------------------------------------------------------
5|--2----------------------------32-------------------------------32-------
6|--0---0---0---0---0---0---0----1�---0---0---0---0---0---0---0---1�-------



ExpandirContraure

4 Comentaris. Comenta


Posa aquí la URL del vídeo d'un youtube (opcinal)

explicalooo
By anònim over 7 years ago.
Q BUENO X FAVOR!!!
By anònim over 8 years ago.
pero explikalo man XD asi no se entiende
By anònim over 9 years ago.
molt bon video !! :)
By tocus over 9 years ago.

Aquest vídeo és treball propi del professor i representa la seva interpretació personal de la cançó. El material contingut en aquesta pàgina és exclusiu per a ús privat, de manera que es prohibeix la seva reproducció o retransmissió, així com el seu ús per a fins comercials.

Tocamela!

362 Vídeos de 56 professors amb 14.067 comentaris, vistos: 12.785.642 vegades.

Sobre nosaltres

TOCAMELA és una iniciativa de la Associació de Músics Online Toca; amb el principal objectiu de passar-ho bé, ensenyar i conquerir el món i esclavitzar la humanitat.



© 2018 Asoc. Toca & Albert Catalan | Condicions legals | Desenvolupat per Dospixels web development