Tocamela

Vídeo Tutorials de cançons fàcils

Vídeo Oficial Tocamela

FADE TO BLACK [intro riff] Metallica

FADE TO BLACK [intro riff]

Has de tenir el Javascript activat i l'última versió del Flash player per poder veure aquest vídeo

26/12/2009 29.617 Vistes

Aquest vídeo està al(s) curso(s): Curs de Metal.
Nota de FADE TO BLACK [intro riff]:
ExpandirContraure
Tablatura de FADE TO BLACK [intro riff]:
|------------------------|------------------------|
|------------------------|------------------------|
|-------0----------------|-------0----------------|
|----4-----4-----4-----4-|----4-----4-----4-----4-|
|-2-----------2-----5----|-0-----------0-----5----|
|------------------------|------------------------|
|
|------------------------|------------------------|
|------------------------|------------------------|
|-------0----------------|-------2----------------|
|----4-----4-----4-----4-|----2-----2-----2-----2-|
|-2-----------2-----5----|-4-----------4-----0----|
|------------------------|------------------------|
ExpandirContraure

7 Comentaris. Comenta


Posa aquí la URL del vídeo d'un youtube (opcinal)

Valls, perquè no fas one de Metallica. Amb la teva manera de tocar-la estaria molt b<br />
<br />
Animuus
By anònim over 7 years ago.
ke calidad como enseñan  buenas rolas tienes
By anònim over 9 years ago.
klk compadre bien todo enseñan bn

felicidades desde rep dom me llamo xavi tan bn como el k se llama xavi  
By anònim over 9 years ago.
al coño su mara

By anònim over 9 years ago.
estic segur de que podries fer una classe de "Horizons" dels genesis ^^,

em farieu molt feliç!
By anònim over 10 years ago.
aniria be el solo de Red Hot - Californication. la intro del principi¿¿ merci
By anònim over 10 years ago.
Que cabrón tan preciso...!

Jejeje!
By blackmogul over 10 years ago.

Aquest vídeo és treball propi del professor i representa la seva interpretació personal de la cançó. El material contingut en aquesta pàgina és exclusiu per a ús privat, de manera que es prohibeix la seva reproducció o retransmissió, així com el seu ús per a fins comercials.

Tocamela!

362 Vídeos de 56 professors amb 14.069 comentaris, vistos: 12.907.094 vegades.

Sobre nosaltres

TOCAMELA és una iniciativa de la Associació de Músics Online Toca; amb el principal objectiu de passar-ho bé, ensenyar i conquerir el món i esclavitzar la humanitat.



© 2019 Asoc. Toca & Albert Catalan | Condicions legals | Desenvolupat per Dospixels web development