Tocamela

Vídeo Tutorials de cançons fàcils

Vídeo Oficial Tocamela

FADE TO BLACK (solo) Metallica

FADE TO BLACK (solo)

Has de tenir el Javascript activat i l'última versió del Flash player per poder veure aquest vídeo

06/12/2009 31.547 Vistes

Aquest vídeo està al(s) curso(s): Curs de Metal.
FADE TO BLACK (solo) Backing Track


Nota de FADE TO BLACK (solo):

Un pas més per tenir el tema sencer! Alguna part me l'he adaptat una miqueta, però és bastant igual tot plegat... Alguna cagadeta per aqui i per allà però bueno.. Tocamelastyle, ":P" Fa una mica pal acabar de polir-lo be...aixi el deixo.

 

Un paso más para tener el tema entero! Alguna parte me la he adaptado un poco, pero es bastante igual todo ... Alguna Cagadets por aquí y por allí pero bueno .. Tocamelastyle,: P Hace un poco palo acabar de pulirlo bien ... así lo dejo.

 

Més / Mas:


Fade To Black Intro Riff

ExpandirContraure
Tablatura de FADE TO BLACK (solo):
w/Rhy. Fig. 4 & Riff A (till fade)
			     B5                         )  )  )  ) <- all full
				 lead gtr.   sl        /  /  /  /
e |----------------------||-------|-------------------------------|-----------|
B |----------------------||-------|-------------------------------|-----------|
G |----------------------||-------|-----------------7--9--9--9--9-|-----------|
D |-(2!5)--7--5--4--2--4-||-------|----------/9--9----------------|-----------|
A |--------5--4--2-------||-------|-------------------------------|-----------|
E |-----------------5--2-||-------|-------------------------------|-----------|

	   ) full               G5
	  /       P               H     H  P        H            H
e |----------------------------|------------------------------|---------------|
B |--------------------------7-|-7--8--7--8--7-----7--8--7----|-7--8--7----10-|
G |-(9)--9--(9)--7--9--9--9----|----------------7-----------7-|----------7----|
D |----------------------------|------------------------------|---------------|
A |----------------------------|------------------------------|---------------|
E |----------------------------|------------------------------|---------------|

							   B5
	      sl            H
e |-----------|-----------------------|-------------------|-------------------|
B |-10--8--10/|12--10--8--8--10--8--7-|-8--10-----8-------|-------------------|
G |-----------|-----------------------|--------9-----9--7-|-------------7--9--|
D |-----------|-----------------------|-------------------|-7--9--9--9--------|
A |-----------|-----------------------|-------------------|-------------------|
E |-----------|-----------------------|-------------------|-------------------|

				  A5
     ) full                      
    /                             P        P    P        P    P
e |-----------------------------|-------------------------------------|
B |-----------------------------|10-7---7-10-7-10-7---7-10-7-10-7---7-|
G |-9--(9)--7--9--7--7-----7--9-|-----9-------------9-------------9---|
D |---------------------9-------|-------------------------------------|
A |-----------------------------|-------------------------------------|
E |-----------------------------|-------------------------------------|


     P        P    P        P    P           P            P     P
e |------------------------------------7-|-10-7------7--10-7--10-7-------|
B |10-7---7-10-7-10-7---7-10-7-10-7-10---|-------10-----------------10---|
G |-----9-------------9------------------|-------------------------------|
D |--------------------------------------|-------------------------------|
A |--------------------------------------|-------------------------------|
E |--------------------------------------|-------------------------------|



	 P     P             P            P     P            P     P
e |-7--10-7--10-7------7-|-10-7------7--10-7--10-7------7--10-7--10-7------7--|
B |----------------10----|-------10-----------------10-----------------10-----|
G |----------------------|----------------------------------------------------|
D |----------------------|----------------------------------------------------|
A |----------------------|----------------------------------------------------|
E |----------------------|----------------------------------------------------|


      )f  )f
     /   /
e |-10--10--10--8--7--8--7-----|-7--------------------------------------------|
B |-------------------------10-|----10--8--10--8--7--8--7-----7---------------|
G |----------------------------|---------------------------9-----9--7---------|
D |----------------------------|----------------------------------------------|
A |----------------------------|----------------------------------------------|
E |----------------------------|----------------------------------------------|


   B5                                               A5
	       P                                              P
e |---------------------|-------7----------------|----------------------------|
B |----------8--7-----7-|-8-10----10--8--7-------|----------8--7-----7--------|
G |----------------9----|-------------------9--7-|----------------9-----------|
D |-7--9--9-------------|------------------------|-7--9--9--------------------|
A |---------------------|------------------------|----------------------------|
E |---------------------|------------------------|----------------------------|


				G5

e |--------7--8--7^^^^^^--7--8-|-10--8--7--8--7------7------------------------|
B |-8--10----------------------|-----------------10-----10--8--10--8--7-------|
G |----------------------------|----------------------------------------------|
D |----------------------------|----------------------------------------------|
A |----------------------------|----------------------------------------------|
E |----------------------------|----------------------------------------------|


					A5

e |------------------------------------|--------------------------7-----------|
B |-8--7-----7-------------------------|----------------7--8--10-----10--8--7-|
G |-------9-----9--7--9--7--6--7--6----|-------6--7--9------------------------|
D |----------------------------------9-|-7--9---------------------------------|
A |------------------------------------|--------------------------------------|
E |------------------------------------|--------------------------------------|


					       )f )f )f )f
				      P       /  /  /  /
e |--------------------7--------------------|------------|
B |-8--7-----7--8--10-----10--8--7--8--7--9-|------------|
G |-------9---------------------------------|-9--9--9--9-|
D |-----------------------------------------|------------|
A |-----------------------------------------|------------|
E |-----------------------------------------|------------|

      full                  3/4       1/2   1/4
     )----------------------............_____              A5
    /      (gradual release)                 ----. P
e |------------------------------------------------------|----------10--10--10|
B |------------------------------------------------------|-----------7---7---7|
G |-9--9--9--9---9--9--9--9--9---9--9--9--9--9---9--7----|-7---------7---7---7|
D |----------------------------------------------------9-|----x--x------------|
A |------------------------------------------------------|----x--x------------|
E |------------------------------------------------------|--------------------|


					      )f  )f   )f
					     /   /    /          P
e |----------10--10--10-------|-10--10--10---------|--------------------------|
B |-----------7---7---7-------|--7---7---7--10--10-|-10^^^^^^--10-7-----7--8--|
G |-----------7---7---7-------|--7---7---7---------|-----------------9--------|
D |-x--x--x--------------x--x-|--------------------|--------------------------|
A |-x--x--x--------------x--x-|--------------------|--------------------------|
E |---------------------------|--------------------|--------------------------|


				     A5
      H  P
e |---------------------------------|-----------------------------------------|
B |-7--8--7-------------------------|-----------------------------------------|
G |----------9--7-----7^^^^^^-----7-|-9--7-----7------------------------------|
D |----------------9-----------9----|-------9-----9--7--9--7-----7------------|
A |---------------------------------|-------------------------9-----9--7------|
E |---------------------------------|-----------------------------------------|

					   B5

				   sl         P               P       P
e |--------------------------------------|-15--12------12--15--12--14--12-----|
B |-----------------------------------12-|---------12----------------------12-|
G |--------------------------------------|------------------------------------|
D |--------------------------------------|------------------------------------|
A |-9--7--5--7--5-----5--5--5--5--7/-----|------------------------------------|
E |----------------7---------------------|------------------------------------|




	   P       P                P               P       P
e |-12--15--12--14--12------12-|-15--12------12--15--12--14--12------12--15---|
B |---------------------12-----|---------12----------------------12-----------|
G |----------------------------|----------------------------------------------|
D |----------------------------|----------------------------------------------|
A |----------------------------|----------------------------------------------|
E |----------------------------|----------------------------------------------|


			 A5
    P      P                P
e |-12--14--12------12-|-17--14------14--------------------|------------------|
B |-------------12-----|---------15------------------------|--------,  -------|
G |--------------------|-------------------//----//----//--|-------- / -------|
D |--------------------|-----------------------------------|--------  '-------|
A |--------------------|-----------------------------------|------------------|
E |--------------------|-----------------------------------|------------------|


    G5
       P               P       P               P       P
e |-19--15------15--19--15--17--15------15--19--15--17--15------15-|
B |---------17----------------------17----------------------17-----|
G |----------------------------------------------------------------|
D |----------------------------------------------------------------|
A |----------------------------------------------------------------|
E |----------------------------------------------------------------|



       P               P       P               P       P
e |-19--15------15--19--15--17--15------15--19--15--17--15------15-|
B |---------17----------------------17----------------------17-----|
G |----------------------------------------------------------------|
D |----------------------------------------------------------------|
A |----------------------------------------------------------------|
E |----------------------------------------------------------------|
		      
						       
    A5                                                 B5 )f  )f  )f  )f
       P                                                 /   /   /   /
e |-21--17------17-------------------|---------------|--22--22--22--22--|
B |---------19-----------------------|------,  ------|------------------|
G |------------------//----//----//--|------ / ------|------------------|
D |----------------------------------|------  '------|------------------|
A |----------------------------------|---------------|------------------|
E |----------------------------------|---------------|------------------|

					 A5
      )f  )f  )f  )f        ) f
     /   /   /   /         /  
e |-22--22--22--22^^^^^^--22--(22)--19-|-22--20--19--20--19--17--19--17--15---|
B |------------------------------------|--------------------------------------|
G |------------------------------------|--------------------------------------|
D |------------------------------------|--------------------------------------|
A |------------------------------------|--------------------------------------|
E |------------------------------------|--------------------------------------|
			       

							       G5

e |-17--15--14-|-15--14--12--14--12--10--12--10--9--10--9--7-|-9--7------7----|
B |------------|---------------------------------------------|-------10-----10|
G |------------|---------------------------------------------|----------------|
D |------------|---------------------------------------------|----------------|
A |------------|---------------------------------------------|----------------|
E |------------|---------------------------------------------|----------------|


					       )f  )---... f    )f
					      /   /           /
e |----------------------|------------------|---------------------------|
B |-8--10--8--7--8--7----|-7-----7--7--7--7-|---------------------7--7--|
G |--------------------9-|----9-------------|-9---9--(9)--(9)--9--------|
D |----------------------|------------------|-----/---/-----------------|
A |----------------------|------------------|-----/---/-----------------|
E |----------------------|------------------|---------------------------|
ExpandirContraure

14 Comentaris. Comenta


Posa aquí la URL del vídeo d'un youtube (opcinal)

monstru<br />
By anònim over 5 years ago.
Gracies Albert!! ;) <br />
Et poso de deures el video on hi ha el link d'aqui sota, fade to black intro riff! Salut
By valls over 7 years ago.
Brutal cosinet! Dsd bcn vibrant amb el solo! Segueixo mirant videos. Records
By anònim over 7 years ago.
Brutal. Ara mateix m'hi poso.<br />
<br />
Gràcies per la feina ben feta, endavant!!!!!!
By anònim over 7 years ago.
Edgar Hammet



oye mis respetos eehhh...



chido carnal si te la rifas ehhh...





felicidades>>>
By anònim over 9 years ago.
De res penya, es mes assequible del que pot semblar aquest solo, els licks ràpids no son pas xungos de posició, una bona manera de  començar els solos de nivell "II"... diga-li
By valls over 9 years ago.
Muy buen tutorial los felicito demasiado siempre abia querido sacar este solo y nunca pude :(   pero con este tutorial lo saque facil:D

muchas gracias y porfavor sigan haciendo videos estan muy buenos encerio

bueno saludos qe esten bien! (:
By anònim over 9 years ago.
mmmm, Dios?
By anònim over 9 years ago.
Esto es acojonante no, lo siguiente.
By blackmogul over 9 years ago.
ets un mestre!!
By raul_alkla over 9 years ago.

Aquest vídeo és treball propi del professor i representa la seva interpretació personal de la cançó. El material contingut en aquesta pàgina és exclusiu per a ús privat, de manera que es prohibeix la seva reproducció o retransmissió, així com el seu ús per a fins comercials.

Tocamela!

362 Vídeos de 56 professors amb 14.067 comentaris, vistos: 12.785.654 vegades.

Sobre nosaltres

TOCAMELA és una iniciativa de la Associació de Músics Online Toca; amb el principal objectiu de passar-ho bé, ensenyar i conquerir el món i esclavitzar la humanitat.



© 2018 Asoc. Toca & Albert Catalan | Condicions legals | Desenvolupat per Dospixels web development