Tocamela

Vídeo Tutorials de cançons fàcils

Vídeo Oficial Tocamela

Fields of Joy Lenny Kravitz

Fields of Joy

Has de tenir el Javascript activat i l'última versió del Flash player per poder veure aquest vídeo

28/05/2008 19.788 Vistes
Nota de Fields of Joy:

Intro:

e|---------------------------------------------------------------------|
B|---------------------------------------------------------------------|
G|---------------------------------------------------------------------|
D|---------------------------------------------------------------------|
A|--------------9---------9--------9-7*------7-6-6------------------|
E|-5/6/7*--------5*-------4*-------3*------3-3-3----3/4/5/6/7*--|

Les barres "/" són "slides". Arrossega el dit pels trastes.

madkilly

Y los acordes:

          Si         Re         Mi         Sol         La
e|------7---------5--------7---------3---------5-----------------------|
B|------7---------7--------9---------3---------5-----------------------|
G|------8---------7--------9---------4---------6-----------------------|
D|------9---------7--------9---------5---------7-----------------------|
A|------9---------5--------7---------5---------7-----------------------|
E|------7---------x--------x---------3---------5-----------------------|

Rafa

ExpandirContraure

38 Comentaris. Comenta


Posa aquí la URL del vídeo d'un youtube (opcinal)

mostra mejor como poner los dedos buena onda
By anònim over 9 years ago.
Rafa tu eres galego?? xD
By anònim over 9 years ago.
com se ponen los dedos para el acorde de re no me sale no se como ponerlos
By anònim over 10 years ago.
Hola rafa eres el mejor maestro y que bueno que hablas en castellano ya que es muy dificil en tender a los de mas jejeje, estoy empezando y es un poco complicado eprender, pero pues con los videos que tienes e aprendido, espero que puedes tocar esta rola Dust in the Wind es que al otro profesor no se le puede entender espero que se pueda, un saludo bye
By anònim over 10 years ago.
toca back in black!

By anònim over 10 years ago.
tocan chido todos me gustaria aprender a tocar
By anònim over 10 years ago.
rafa no dejes de tocarmela gracias(mexico)
By random over 10 years ago.
me costo aprendermela pero pude ahora puedo abrir los dedos mas que antes esta cancion me alludo mucho
By JURGEN12 over 11 years ago.
Hola, hola!! perdonad por no contestar antes, es que resulta que de vez en cuando hago otras cosas a parte de estar delante del ordenador. Pero trankilos, que no volvera a pasar!!!

De todos modos se agradecen los cumplidos.

Un saludo y tocamela!
By rafa over 11 years ago.
Eres Mi idolo !!! (I)
By JURGEN12 over 11 years ago.

Aquest vídeo és treball propi del professor i representa la seva interpretació personal de la cançó. El material contingut en aquesta pàgina és exclusiu per a ús privat, de manera que es prohibeix la seva reproducció o retransmissió, així com el seu ús per a fins comercials.

Tocamela!

362 Vídeos de 56 professors amb 14.067 comentaris, vistos: 12.851.424 vegades.

Sobre nosaltres

TOCAMELA és una iniciativa de la Associació de Músics Online Toca; amb el principal objectiu de passar-ho bé, ensenyar i conquerir el món i esclavitzar la humanitat.



© 2019 Asoc. Toca & Albert Catalan | Condicions legals | Desenvolupat per Dospixels web development