Tocamela

Vídeo Tutorials de cançons fàcils

Vídeo Oficial Tocamela

STILL GOT THE BLUES (Main Riffl) Gary Moore

STILL GOT THE BLUES (Main Riffl)

Has de tenir el Javascript activat i l'última versió del Flash player per poder veure aquest vídeo

03/12/2009 22.531 Vistes

Aquest vídeo està al(s) curso(s): Curso de Rock.
STILL GOT THE BLUES (Main Riffl) Backing Track


Nota de STILL GOT THE BLUES (Main Riffl):

Aquesta és una de les múltiples variacions que fa en Gary en el riff principal del tema Still got the Blues, just en el moment en que el repeteix abans del solo.
Briconsell: Apliqueu un vibrato molt fort a les notes llargues i poseu molt delay i reverb a la distorsió.

 

Esta es una de las múltiples variaciones que hace en Gary en el riff principal del tema Still got the Blues, justo en el momento en que lo repite antes del solo.
Briconsejo: Aplique un vibrato muy fuerte en las notas largas y ponga muy delay y reverb a la distorsión.

ExpandirContraure
Tablatura de STILL GOT THE BLUES (Main Riffl):
|          Dm7                          Dm7/G                   Cmaj7
-----------|------------------------|------------------|--------------------|
----15--17-|-17b18--------18r17--17-|-15--------13--15-|-15b17------15b17---|
-14--------|------------------------|--------12--------|--------------------|
-----------|------------------------|------------------|--------------------|
-----------|------------------------|------------------|--------------------|
-----------|------------------------|------------------|--------------------|

Fmaj7                 Bm7b5                 E7                 Am
|-------------------|-------------------|------------------|--------------|----
|-13---------12--13-|-13b15------13b15--|-12------------12-|-13-----15----|-17-
|--------14---------|-------------------|------------14----|--------------|----
|-------------------|-------------------|------------------|--------------|----
|-------------------|-------------------|------------------|--------------|----
|-------------------|-------------------|------------------|--------------|----
ExpandirContraure

7 Comentaris. Comenta


Posa aquí la URL del vídeo d'un youtube (opcinal)

Bm7b5  




By anònim over 8 years ago.
Bm7b5  
By anònim over 8 years ago.
dios temasu mencanta avera si l'aprenc

MOltes gracies
By syla over 9 years ago.
Mira, sempre he volgut i mai he trobat el moment, i mira que porta temps ahí, pero ara segur que l'aprenc..., un 10 em majuscules!
By bendo over 9 years ago.
hola majo, jo canto aquesta canço al meu grup i els acorts emb semble

que no son els mateixos. mels pots facil-litar.

ramon

pero si els ting adalt
By anònim over 9 years ago.
hola majo, jo canto aquesta canço al meu grup i els acorts emb semble

que no son els mateixos. mels pots facil-litar.

ramon
By anònim over 9 years ago.
Gracies valls, sempre he volgut apendre aquest troçet de canço. "riff"
By anònim over 9 years ago.

Aquest vídeo és treball propi del professor i representa la seva interpretació personal de la cançó. El material contingut en aquesta pàgina és exclusiu per a ús privat, de manera que es prohibeix la seva reproducció o retransmissió, així com el seu ús per a fins comercials.

Tocamela!

362 Vídeos de 56 professors amb 14.066 comentaris, vistos: 12.665.571 vegades.

Sobre nosaltres

TOCAMELA és una iniciativa de la Associació de Músics Online Toca; amb el principal objectiu de passar-ho bé, ensenyar i conquerir el món i esclavitzar la humanitat.



© 2018 Asoc. Toca & Albert Catalan | Condicions legals | Desenvolupat per Dospixels web development