Tocamela

Vídeo Tutorials de cançons fàcils

Vídeo Oficial Tocamela

Himne del Barça

Himne del Barça

Has de tenir el Javascript activat i l'última versió del Flash player per poder veure aquest vídeo

08/06/2009 61.834 Vistes

Aquest vídeo està al(s) curso(s): Curs de Metal, Curso de Rock, Curs de Guitarra Tocamela.
Himne del Barça Acords:
Do
do
Sol
sol-4
Fa
fa
Re
re
Rem
rem
Sol7
sol7
Himne del Barça Backing Track


Nota de Himne del Barça:

Aqui us deixo diferents versions que n'ha fet la penya!!

Himne del barça by Khirareg

Himne del barça by Gerard Merino

Himne del barça by txarlyhellin

Himne del barça by Josebe9


ExpandirContraure
Tablatura de Himne del Barça:
Do                Do                Do
|---------|-------|---------|-------|------------------|
|---------|-13----|---------|-13----|-----------13-15--|
|------12-|-------|------12-|-------|--------12--------|
|-14------|-------|-14------|-------|-14---------------|
|---------|-------|---------|-------|------------------|
|---------|-------|---------|-------|------------------|
 
  Sol               Fa                         Do
|-----------------|---------------------------|--------|
|-13-12-----------|-10-----12-13--12h13p12-10-|--------|
|-----------------|---------------------------|-12-----|
|-----------------|---------------------------|--------|
|-----------------|---------------------------|--------|
|-----------------|---------------------------|--------|
 
  Fa                    Lam           Re   *Re Mi Fa#  
|---------------------|-------------|------------------|
|---------------------|-------------|------------------|
|-10-----12-14--12-10-|-9------10-9-|-8-----8--9--11---|
|---------------------|-------------|------------------|
|---------------------|-------------|------------------|
|---------------------|-------------|------------------|
 
  Sol Fa# Sol Lam Si*   Do        Sol           Re  Sol
|---------------------|-----------------------|---------|
|-----------------12--|-13-12--------------12-|---------|
|-12--11--12--14------|--------14-12----12----|-14--12--|
|---------------------|--------------12-------|---------|
|---------------------|-----------------------|---------|
|---------------------|-----------------------|---------|
 
  Do          Fa      Re          Sol     Fa    Sol
|-----------|-------|-----------|-------|----------------|
|-----13-12-|-10----|-----15-13-|-12----|-13----12/b-----|
|-12--------|-------|-14--------|-------|-------------14-|
|-----------|-------|-----------|-------|----------------|
|-----------|-------|-----------|-------|----------------|
|-----------|-------|-----------|-------|----------------|
 
  Do                Fa             Sol           Sol7 Do
|-------------12--|-13-12h13h12-10----------12-|-----------|
|----------13-----|----------------13----13----|-15---13---|
|-12----12--------|-------------------12-------|-----------|
|----14-----------|----------------------------|-----------|
|-----------------|----------------------------|-----------|
|-----------------|----------------------------|-----------|
   
* La part que toco la melodia afegint-hi les quintes entre
els dos asteriscs es pot reduir en dos acords, Re i Sol.
* Cada separació |--| en la tablatura té la duració d un 
compàs de 4/4. Ja trobareu on cauen les notes..espero.
ExpandirContraure
LLetra de Himne del Barça:
DO
Tot el camp és un clam.

                 SOL
Som la gent blaugrana,

FA                 DO
tant se val d´on venim,

FA                lam
si del sud o del nord.

RE                 SOL
Però ara estem d´acord,

SOL
estem d´acord,

DO     SOL     RE    SOL
una bandera ens agermana.

DO            FA
Blaugrana al vent, 

rem        SOL
un crit valent,

FA SOL   DO
tenim un nom, el sap tothom:

FA     SOL    SOL7 DO
Barça, Barça, Barça.

DO
Jugadors, seguidors,

                SOL
tots units fem força.

FA                       DO
Són molts anys plens d´afanys,

FA                       lam
són molts gols que hem cridat,

RE
i s´ha demostrat,

          SOL
s´ha demostrat

DO       SOL             RE   SOL
que mai ningú no ens podrà  tòrcer.

DO            FA
Blaugrana al vent, 

rem        SOL
un crit valent,

FA  SOL   DO
tenim un nom, el sap tothom:

FA      SOL    SOL7  DO
Barça, Barça, Barça.
ExpandirContraure

89 Comentaris. Comenta


Posa aquí la URL del vídeo d'un youtube (opcinal)

esta aqui a sota on posa tablatura ;P
By valls over 6 years ago.
Pories penjar el puntejat també?
By anònim over 6 years ago.
El tornarem a tocar!!
By khirareg over 6 years ago.
al principi la toques diferent que quan l'ensenyes?!
By anònim over 6 years ago.
Quedarse con xavi sería sólo para los cumba_lleno_piojos!!!<br />
Aun así a mí también me mola un montón el muy cabrón.. GORA!
By valls over 6 years ago.
eres buenisimo............pero no se con quien me quedari ,contigo o con xavi....sois cojonudos. GORA EUSKADI<br />
By anònim over 6 years ago.
hola podrias poner otra vez el backing track?<br />
no me anda..se q ante lo tenias puesto en goear, pero no lo encuentro :(<br />
By anònim over 6 years ago.
BARÇA CAMPIÓ!!!!!!!!!!!!! 99 PUNTS, QUINA LLIGA MÉS INTENSA!!!!!!!!

També felicitar el Real Madrid per haver sigut el millor SUBCAMPIÓ de la historia xD.
By Josebe9 over 7 years ago.
Afegit a la col·lecció de versions de l'himne!

Guanyada l'eurocopa i ja només falta l'últim graó per aconseguir la lliga, força barça!
By valls over 7 years ago.
Vaja, no ha sortit l'enllaç. xD



http://forum.tocamela.cat/viewtopic.php?f=116&t=3741



^^
By Josebe9 over 7 years ago.

Aquest vídeo és treball propi del professor i representa la seva interpretació personal de la cançó. El material contingut en aquesta pàgina és exclusiu per a ús privat, de manera que es prohibeix la seva reproducció o retransmissió, així com el seu ús per a fins comercials.

Tocamela!

362 Vídeos de 56 professors amb 14.062 comentaris, vistos: 12.398.323 vegades.

Sobre nosaltres

TOCAMELA és una iniciativa de la Associació de Músics Online Toca; amb el principal objectiu de passar-ho bé, ensenyar i conquerir el món i esclavitzar la humanitat.



© 2017 Asoc. Toca & Albert Catalan | Condicions legals | Desenvolupat per Dospixels web development