Tocamela

Vídeo Tutorials de cançons fàcils

Vídeo Oficial Tocamela

In the middle of a heartbeat Helloween

In the middle of a heartbeat

Has de tenir el Javascript activat i l'última versió del Flash player per poder veure aquest vídeo

16/08/2007 24.130 Vistes
In the middle of a heartbeat Acords:
Dm
dm
F
f
Am
am
E
e
B
b
C
c
Nota de In the middle of a heartbeat :
                                      
                                            
Intro
-----

   Rhy. fig. 1
Eb|----------------------------------|----------------------------------|-1p0-------------1p0--------------|
Bb|-2h3-----3-------0h1-----1--------|-------1--------------------------|-----3---3-----------3---3--------|
Gb|-----2-------2-------2-------2----|-0h2-----2-----------0-------0----|-------2-----2---------2-----2----|
Db|-------0-------0-------0-------0--|-----0-------------2-------0------|-0-------------0---------------0--|
Ab|----------------------------------|-------------0-2-3-------2--------|----------------------------------|
Eb|----------------------------------|----------------------------------|----------------------------------|

                      End rhy. fig. 1



1st verse
---------

Play rhy. fig. 1 twise while singing:

Tell me pretty girl do you know who I am?
Have you ever seen me as a friend?
Everything we have is those hungry nights
But there so much left unsatisfied


Bridge
------


    F                                  Am
Eb|---------------------------1-----|---------------0-----------------|
Bb|---------1-------------1---1-----|-------0-1-----1---1-----1-0-----|
Gb|-------2-----2---------2---2-----|-----2-------2-2---2---------2---|
Db|-----3---------3-----3---3---3---|---2-----------2-------2---------|
Ab|---3---------------3-----------3-|-0---------------0---------------|
Eb|-1---------------1---------------|---------------------------------|
   All those little things you told me Ain´t good enough to show me

    F                                  E
Eb|---------------------------------|-------------0-----0-0-0-0-0-0-0-|
Bb|---------------------------------|-------------0-----0-0-0-0-0-0-0-|
Gb|---------------------------------|-------1---1-1-----1-1-1-1-1-1-1-|
Db|------copy paste de dalt---------|-------2---2-2-----2-2-2-2-2-2-2-|
Ab|---------------------------------|---------2---2-----2-2-2-2-2-2-2-|
Eb|---------------------------------|-0-----------0-----0-0-0-0-0-0-0-|
    That we´re gonna make it through the night                   I found


Chorus
------

During the choruses Andi just plays chords like this (Listen to the CD for timing)

    Dm       Am                Bb
  (I found) out in a middle of a heart beat
   (Bb)     Dm                  Bb
   And the more I try to do it right
   (Bb)             C             Dm  Am 
   I can´t get any closer to your heart
         
   (repeat)
          

Then play rhy. fig. 1 once


Verse 2
-------

Play rhy. fig. 1 twise while singing:

Now that I´m afraid just to ask for more
I´m still waiting as I did before
If you won´t be sad, then it´s not to late
We could rely upon a fate
------

Same as previous bridge
------
2 x Chorus
------

 
---------------------------------------------------------
 
Note: All Bb & C chords are played like this  Eb|---|---|
                                              Bb|-3-|-5-|
                                              Gb|-3-|-5-|
                                              Db|-3-|-5-|
                                              Ab|-1-|-3-|
                                              Eb|---|---|    
ExpandirContraure

22 Comentaris. Comenta


Posa aquí la URL del vídeo d'un youtube (opcinal)

valls pro ho podries fer en la tonalitat original, com a la canso de the bard's song xD :D
By Ricardfr over 9 years ago.
solo una cosa que por favor escriba la tablatura original para poder tocar como el gracias

By anònim over 9 years ago.
eres mu grande vals . si kieres vente a bilbo ke la liamos petarda . aki trinfariass muxo con la gitarrita ....je je je (eskerrik asko!)

By anònim over 9 years ago.
tranqui heavykasko.. despues ya me invento algo de punteo (igual que el dia que lo tocamos)
By valls over 9 years ago.
oye tio, a ver si por favor me pones el arpegio que el siguiente findfe e quedaio con unas colegas heavyes y como las toque y cante esto me las gano.....por favor....

By anònim over 9 years ago.
oye vals me caes mu bien...pero me caerias muxo mejor si me pusieras las notas de arpegio eskerrik asko

By anònim over 9 years ago.
poner el arpegio ya!!!!!!!!!! si no cuesta nada....
By anònim over 9 years ago.
esta buena la cancion pero kisiera de linkin park por favor
By anònim over 9 years ago.
Aclaracion del comnetario anteriro: Lo que quise decir con que no entiendo catalan, es por un posible explicacion, y no por lo acordes que estan SI y en DO. Gracias
By Sergio... over 10 years ago.
ah... me olvide..como se interpreta esto? por favor soy de argentina y catalan no se leer. Gracias

Note: All Bb & C chords are played like this Eb|---|---| Bb|-3-|-5-| Gb|-3-|-5-| Db|-3-|-5-| Ab|-1-|-3-| Eb|---|---|
By Sergio... over 10 years ago.

Aquest vídeo és treball propi del professor i representa la seva interpretació personal de la cançó. El material contingut en aquesta pàgina és exclusiu per a ús privat, de manera que es prohibeix la seva reproducció o retransmissió, així com el seu ús per a fins comercials.

Tocamela!

362 Vídeos de 56 professors amb 14.066 comentaris, vistos: 12.628.017 vegades.

Sobre nosaltres

TOCAMELA és una iniciativa de la Associació de Músics Online Toca; amb el principal objectiu de passar-ho bé, ensenyar i conquerir el món i esclavitzar la humanitat.



© 2018 Asoc. Toca & Albert Catalan | Condicions legals | Desenvolupat per Dospixels web development