Tocamela

Vídeo Tutorials de cançons fàcils

Vídeo Oficial Tocamela

Iniciació al Baix 01: Les Mans

Iniciació al Baix 01: Les Mans

Has de tenir el Javascript activat i l'última versió del Flash player per poder veure aquest vídeo

16/06/2009 13.270 Vistes

Aquest vídeo està al(s) curso(s): Curs de baix.
Nota de Iniciació al Baix 01: Les Mans:

"Dick
Dick Them al MySpace


Exercici 1:

|-------------------------0-0-0-0-|
|-----------------0-0-0-0---------|
|---------0-0-0-0-----------------|
|-0-0-0-0-------------------------|
Dit (Ma Dreta): 1 2 1 2 1 2 1 2 1 2 1 2 1 2 1 2


Exercici 2 (1-2):
|----------------5-6-|
|-----------5-6------|
|------5-6-----------|
|-5-6----------------|
Dit (Ma Dreta): 1 2 1 2 1 2 1 2
Dit (Equerra): 1 2 1 2 1 2 1 2


Exercici 3 (1-3):
|----------------5-7-|
|-----------5-7------|
|------5-7-----------|
|-5-7----------------|
Dit (Ma Dreta): 1 2 1 2 1 2 1 2
Dit (Equerra): 1 3 1 3 1 3 1 3


Exercici 4 (1-4):

|----------------5-8-|
|-----------5-8------|
|------5-8-----------|
|-5-8----------------|
Dit (Ma Dreta): 1 2 1 2 1 2 1 2
Dit (Equerra): 1 4 1 4 1 4 1 4


Exercici 5 (1-2-3):
|----------------------5-6-7-|
|---------------5-6-7--------|
|--------5-6-7---------------|
|-5-6-7----------------------|
Dit (Ma Dreta): 1 2 1 2 1 2 1 2 1 2 1 2
Dit (Equerra): 1 2 3 1 2 3 1 2 3 1 2 3


Exercici 6 (1-2-3-4):
|--------------------------------7-8-9-10--|
|---------------------7-8-9-10-------------|
|-----------7-8-9-10-----------------------|
|-7-8-9-10---------------------------------|
Dit (Ma Dreta): 1 2 1 2 1 2 1 2 1 2 1 2 1 2 1 2
Dit (Equerra): 1 2 3 4 1 2 3 4 1 2 3 4 1 2 3 4


Exercici 7 (3-2-1):
|----------------------7-6-5-|
|---------------7-6-5--------|
|--------7-6-5---------------|
|-7-6-5----------------------|
Dit (Ma Dreta): 1 2 1 2 1 2 1 2 1 2 1 2
Dit (Equerra): 3 2 1 3 2 1 3 2 1 3 2 1


Altres:

1-2-4, 1-3-4, 2-3-4, 2-1-3

1-4-3-2, 1-4-3-2, 2-1-3-4, 2-1-4-3, 4-3-2-1



ExpandirContraure

14 Comentaris. Comenta


Posa aquí la URL del vídeo d'un youtube (opcinal)

Muy buena la explicación de las manos...

Gracias. Para cuando más vídeos?

Un saludo

By anònim over 10 years ago.
claro que es el bajista de nena daconte!! dick them power! hahah
By anònim over 10 years ago.
i aura segona part?
By Charlie Bass over 10 years ago.
"anonim 6/27/2009 1:35:00 PM"; si és el de Nena Daconte, i el seu pròxim vídeo és de un tema d'ella.
By tocamela over 10 years ago.
Eiii, tú no eres el bajista de Nena Daconte ? Enseñanos algúna canción como la tocas ! Te vi tocando con el grupo en Mataro y sonaba muy bien.Gracias.
By anònim over 10 years ago.
Tant de bo hagués existit aquest vídeo quan em vaig dedicar al baix fa uns anys... Fantàstic!
By Intra over 10 years ago.
Genial explicació! es trobava a faltar més videos sobre el BAIX! ja estem esperant el pròxim video!!



Moltes gràcies!
By anònim over 10 years ago.
ma anat perfecte.

fa res q m cmprat un baix i x cmensar perfecte.

sper la segona part amb ansia
By Charlie Bass over 10 years ago.
slap elproxim toca slap i popping!
By eldelbajo over 10 years ago.
ja feia falta un video tan instructiu



ara ens falta el baix...
By bendo over 10 years ago.

Aquest vídeo és treball propi del professor i representa la seva interpretació personal de la cançó. El material contingut en aquesta pàgina és exclusiu per a ús privat, de manera que es prohibeix la seva reproducció o retransmissió, així com el seu ús per a fins comercials.

Tocamela!

362 Vídeos de 56 professors amb 14.071 comentaris, vistos: 12.987.192 vegades.

Sobre nosaltres

TOCAMELA és una iniciativa de la Associació de Músics Online Toca; amb el principal objectiu de passar-ho bé, ensenyar i conquerir el món i esclavitzar la humanitat.



© 2019 Asoc. Toca & Albert Catalan | Condicions legals | Desenvolupat per Dospixels web development