Tocamela

Vídeo Tutorials de cançons fàcils

Vídeo Oficial Tocamela

Crowd Chant Joe Satriani

Crowd Chant

Has de tenir el Javascript activat i l'última versió del Flash player per poder veure aquest vídeo

25/08/2009 10.563 Vistes
Nota de Crowd Chant:

"Vols

Si alguna cosa no s'entèn de la TAB, envieu-me un MP al fòrum o contacteu amb mi com pogueu i us ho explicaré ;)

ExpandirContraure
Tablatura de Crowd Chant:
E|--------------------------------------------------------------------------------------|
B|--------------------------------------------------------------------------------------|
G|----------------------------------4---6-----------------------------------------------|
D|--6---6---6---6---6---6---6---6---2---4-----------------------------------------------|
A|--4---4---4---4---4---4---4---4-------------------------------------------------------|
E|--------------------------------------------------------------------------------------|


E|--------------------------------------------------------------------------------------|
B|--------------------------------------------------------------------------------------|
G|--------------------------------------------------------------------------------------|
D|--6---6---6---6---6---6---6---6---9---8-----------------------------------------------|
A|--4---4---4---4---4---4---4---4---7---6-----------------------------------------------|
E|--------------------------------------------------------------------------------------|


E|--------------------------------------------------------------------------------------|
B|--------------------------------------------------------------------------------------|
G|----------------------------------4---6-----------------------------------------------|
D|--6---6---6---6---6---6---6---6---2---4-----------------------------------------------|
A|--4---4---4---4---4---4---4---4----------2---4---7---9--------------------------------|
E|-----------------------------------------0---2---5---7--------------------------------|

(2 VEGADES)





                                        b  b/   |------b/------|b
E|----------------|---------------|-------------|---------------------------------------|
B|----5-7p5-------|---------------|---5-7-7p5-7-|--7-7-7-7-7-7-7-7-7p5------------------|
G|--6-------6-4-6-|--6-4----------|-6-----------|----------------------6----------------|
D|----------------|------6-4------|-------------|---------------------------------------|
A|----------------|----------7-4--|-------------|---------------------------------------|
E|----------------|---------------|-------------|---------------------------------------|

    b/      b/      b/      |----b/----|  b
E|-----9-------9-------9--|--15-15-15-15---15p12----|-9-7-------9-7---------------------|
B|--12---9--12---9--12----|----------------------14-|----9-7-9-----9-9-7----------------|
G|------------------------|-------------------------|-------------------9-6-9-----------|
D|------------------------|-------------------------|-----------------------------------|
A|------------------------|-------------------------|-----------------------------------|
E|------------------------|-------------------------|-----------------------------------|


E|--------------|-----------------------------------------------------------------------|
B|--------------|-----------------------------------------------------------------------|
G|--6-4---------|-----------------------------------------------------------------------|
D|------6-4-----|-----------------------------------------------------------------------|
A|----------7-4-|--4h7-4-4-7p4-4-7p4-4-7p4-4h7-4-4-7p4-4-4--4h7-4-4-7p4-4-7p4-4-7p4-7-4-|
E|--------------|-------------------------------------7---------------------------------|

By Gerard Merino!!!!!!!!!



TOCAMELA!!!!!!!!!!!!!!!!!!
ExpandirContraure

22 Comentaris. Comenta


Posa aquí la URL del vídeo d'un youtube (opcinal)

esplica una mica millor els acords del final k dumes esplicas dos

pero igualment

esta currada la canço!!!

Gracies!
By syla over 9 years ago.
k heavyy nen!!!!! és brutal!! i a més t'ha sortit nikelada a la original!!



apa salu!
By anònim over 9 years ago.
m'ha agradat molt



i la cançó és 1 d'aquelles q t'alegren el dia



n'espero 1 altra ja d'aquestes



salut!
By eva pantomaquet over 9 years ago.
Caralloooooot!!





Jooo k guaaay ma pudre aprufita de la teva pastaa jojojo. k sapigas k ma pasare la vida a la teva mansio xD



Nu res noi k aveure si fas l cuncer akeet!!



Muaaaaaaaaaaaaka! :)





pd: dun escamarla k testima moooolt!! xD
By anònim over 9 years ago.
Brutal
By blackmogul over 9 years ago.
MEEEEEEERINO CRAAACK :)

veig que t'ho estas treballant, molts anims!

By anònim over 9 years ago.
uaaaaaaaaaaah vull un fill teu!!!!! bueno N0! DOS!!!

jajaja genial tio, estic orgullosa xD
By anònim over 9 years ago.
Benvingut a la casa Gerard!!!

Genial començar a inaugurar Satriani... &co!! ;)
By valls over 9 years ago.
Queda molt guapa Gerard tiu!! vinga endavant!!



Salut
By anònim over 9 years ago.
ahi ahi! k esta tó nerviós muahahah

a veure si sas  ki soc
By anònim over 9 years ago.

Aquest vídeo és treball propi del professor i representa la seva interpretació personal de la cançó. El material contingut en aquesta pàgina és exclusiu per a ús privat, de manera que es prohibeix la seva reproducció o retransmissió, així com el seu ús per a fins comercials.

Tocamela!

362 Vídeos de 56 professors amb 14.067 comentaris, vistos: 12.816.780 vegades.

Sobre nosaltres

TOCAMELA és una iniciativa de la Associació de Músics Online Toca; amb el principal objectiu de passar-ho bé, ensenyar i conquerir el món i esclavitzar la humanitat.



© 2019 Asoc. Toca & Albert Catalan | Condicions legals | Desenvolupat per Dospixels web development