Tocamela

Vídeo Tutorials de cançons fàcils

Vídeo Oficial Tocamela

Lado Oscuro (Com tocar Thrash metal) Ktulu

Lado Oscuro (Com tocar Thrash metal)

Has de tenir el Javascript activat i l'última versió del Flash player per poder veure aquest vídeo

03/02/2010 19.029 Vistes

Aquest vídeo està al(s) curso(s): Curs de Metal.
Nota de Lado Oscuro (Com tocar Thrash metal):

Hem posat les dos tablatures; una amb afinació "normal" i l'altra afinada en Re.


Descarregar el arxiu de Guitar Pro

ExpandirContraure
Tablatura de Lado Oscuro (Com tocar Thrash metal):
Lado Oscuro - Ktulu 
Tablatura original de http://www.tocamela.cat/

Guitarra amb afinació "normal":

      Q.     E  H           E  E  E  E  E  E  E  E   
E||----------------------|--------------------------|
B||----------------------|--------------------------|
G||*---------------------|--------------------------|
D||*---------------------|--------------------------|
A||---2------2--2--------|--5--7-----5--7-----5--7--|
E||---0------0--0--------|--3--5-----3--5-----3--5--|


         PM                                                           
  Q.     E  H           E  E  E  E  E  E  Q       Q.     E  H         
---------------------|-------------------------|---------------------|
---------------------|-------------------------|---------------------|
---------------------|-------------------------|---------------------|
---------------------|-------------------------|---------------------|
--7------7--7--------|--5--7-----5--7-----7----|--2------2--2--------|
--3------3--3--------|--3--5-----3--5-----5----|--0------0--0--------|


                                    PM           
  E  E  E  E  E  E  E  E     Q.     E  H         
--------------------------|---------------------|
--------------------------|---------------------|
--------------------------|---------------------|
--------------------------|---------------------|
--5--7-----5--7-----5--7--|--7------7--7--------|
--3--5-----3--5-----3--5--|--3------3--3--------|


  E  S E.  E  S E.  E  E         E  E   S  E   E   E   E   S  E   3x
---------------------------||-------------------------------------||
---------------------------||-------------------------------------||
--------------------------*||*-----------------------------------*||
--------------------------*||*-----------------------------------*||
--5--7-----5--7-----5--7---||-------------------------------------||
--3--5-----3--5-----3--5---||---12--0--10-12--12--10--10--10-12---||


   E  E   S  E   E  E.  Q          E  E   S  E   E   E   E   S  E   8x
-----------------------------||-------------------------------------||
-----------------------------||-------------------------------------||
-----------------------------||*-----------------------------------*||
-----------------------------||*-----------------------------------*||
-----------------------------||-------------------------------------||
--12--0--10-12--12-----------||---12--0--10-12--12--10--10--10-12---||


                            PM PM   PM PM PM PM   PM PM PM PM PM    
  Q.     E  E  E  Q         S  S  S S  E  S  S  S S  E  S  S  E   3x
-----------------------||-----------------------------------------||
-----------------------||-----------------------------------------||
-----------------------||*---------------------------------------*||
-----------------------||*---------------------------------------*||
--8------8--7----------||---2--2----2--5--2--2----2--5--5--6--7---||
--6------6--5----------||---0--0----0--3--0--0----0--3--3--4--5---||


  S S S S E  S S S S E  S S E   
-------------------------------|
-------------------------------|
-------------------------------|
-------------------------------|
--2-2---2-5--2-2---2-5--5-6-7--|
--0-0---0-3--0-0---0-3--3-4-5--|


                PM PM   PM PM   PM PM   PM  
    S S S S S S S  S  S S  S  S S  S  S S   
|------------------------------------------|
|------------------------------------------|
|*-----------------------------------------|
|*-----------------------------------------|
|-----5-0----------------------------------|
|---0-----0-5-6-0--0----0--0----0--0----0--|


  PM                                                                
  S  S S S S S S E  E  S S S E   4x   S S E  S S S S S S E  S E  S  
---------------------------------||--------------------------------|
---------------------------------||--------------------------------|
--------------------------------*||*-------------------------------|
--------------------------------*||*-------------------------------|
-----5-0------------5----5-7-7---||----------------5-----5----5--5-|
--0------0-5-6-0-0--3--0-3-5-5---||---0---0--3-5-0-3-L-0-3--0-3--3-|


  S S E  S S S S S S E  S E  S    S S E  S S S S S S E  S E  S  
-------------------------------|-------------------------------|
-------------------------------|-------------------------------|
-------------------------------|-------------------------------|
-------------------------------|-------------------------------|
---------------5-----5--5-4--3-|---------------5-----5----5--5-|
--0---0--3-5-0-3-L-0-3--3-2--1-|--0---0--3-5-0-3-L-0-3--0-3--3-|


  S S E  S S S S S S E  S E  S    S S E  S S S S S S E  S E  S  
-------------------------------|-------------------------------|
-------------------------------|-------------------------------|
-------------------------------|-------------------------------|
-------------------------------|-------------------------------|
---------------5-----5--5-4--3-|---------------5-----5----5--5-|
--0---0--3-5-0-3-L-0-3--3-2--1-|--0---0--3-5-0-3-L-0-3--0-3--3-|


  S S E  S S S S S S E  S S E   
-------------------------------|
-------------------------------|
-------------------------------|
-------------------------------|
---------------5---5-5--5-4----|
--0---0--3-5-0-3-L-3-3--3-2----|


     E  E   S  E   E   E   E   S  E   8x  Q.     E  E  E  Q     
|-------------------------------------||-----------------------|
|-------------------------------------||-----------------------|
|*-----------------------------------*||-----------------------|
|*-----------------------------------*||-----------------------|
|-------------------------------------||--8------8--7----------|
|---12--0--10-12--12--10--10--10-12---||--6------6--5----------|


    PM PM   PM PM PM PM   PM PM PM PM PM    
    S  S  S S  E  S  S  S S  E  S  S  E   3x
|-----------------------------------------||
|-----------------------------------------||
|*---------------------------------------*||
|*---------------------------------------*||
|---2--2----2--5--2--2----2--5--5--6--7---||
|---0--0----0--3--0--0----0--3--3--4--5---||


  S S S S E  S S S S E  S S E   
-------------------------------|
-------------------------------|
-------------------------------|
-------------------------------|
--2-2---2-5--2-2---2-5--5-6-7--|
--0-0---0-3--0-0---0-3--3-4-5--|


                PM PM   PM PM   PM PM   PM  
    S S S S S S S  S  S S  S  S S  S  S S   
|------------------------------------------|
|------------------------------------------|
|*-----------------------------------------|
|*-----------------------------------------|
|-----5-0----------------------------------|
|---0-----0-5-6-0--0----0--0----0--0----0--|


  PM                                                                
  S  S S S S S S E  E  S S S E   4x   S S E  S S S S S S E  S E  S  
---------------------------------||--------------------------------|
---------------------------------||--------------------------------|
--------------------------------*||*-------------------------------|
--------------------------------*||*-------------------------------|
-----5-0------------5----5-7-7---||----------------5-----5----5--5-|
--0------0-5-6-0-0--3--0-3-5-5---||---0---0--3-5-0-3-L-0-3--0-3--3-|


  S S E  S S S S S S E  S E  S    S S E  S S S S S S E  S E  S  
-------------------------------|-------------------------------|
-------------------------------|-------------------------------|
-------------------------------|-------------------------------|
-------------------------------|-------------------------------|
---------------5-----5--5-4--3-|---------------5-----5----5--5-|
--0---0--3-5-0-3-L-0-3--3-2--1-|--0---0--3-5-0-3-L-0-3--0-3--3-|


  S S E  S S S S S S E  S E  S    S S E  S S S S S S E  S E  S  
-------------------------------|-------------------------------|
-------------------------------|-------------------------------|
-------------------------------|-------------------------------|
-------------------------------|-------------------------------|
---------------5-----5--5-4--3-|---------------5-----5----5--5-|
--0---0--3-5-0-3-L-0-3--3-2--1-|--0---0--3-5-0-3-L-0-3--0-3--3-|


  S S E  S S S S S S E  S S S S    S S S S S S S S S Q.     S  
--------------------------------|-----------------------------|
--------------------------------|-----------------------------|
--------------------------------|-----------------------------|
--------------------------------|-----------------------------|
---------------5---5-5--5-5-5-5-|--5-5-5-5-5-5-5-5-5----------|
--0---0--3-5-0-3-L-3-3--3-3-3-3-|--3-3-3-3-3-3-3-3-3----------|


  T T T T Q    T T T T T T T Q    T T T T T  
--------------------------------------------|
--------------------------------------------|
--------------------------------------------|
--------------------------------------------|
--------------------------------------------|
--0-0-0--------0-0-0-0-0-0-0--------0-0-0-0-|


  T T T T Q    S E  E  S S S E   
--------------------------------|
--------------------------------|
--------------------------------|
--------------------------------|
-----------------8--7----5-7-7--|
--0-0-0--------0-6--5--0-3-5-5--|


  T T T T Q    T T T T T T T Q    T T T T T  
--------------------------------------------|
--------------------------------------------|
--------------------------------------------|
--------------------------------------------|
--------------------------------------------|
--0-0-0--------0-0-0-0-0-0-0--------0-0-0-0-|


  T T T T Q    S E  E  S S S E     S S S S S S S E  E  S E  E   
--------------------------------|------------------------------|
--------------------------------|------------------------------|
--------------------------------|------------------------------|
--------------------------------|------------------------------|
-----------------8--7----5-7-7--|---------------------------8--|
--0-0-0--------0-6--5--0-3-5-5--|--0---0-0-0---0-1--1--0-1--6--|


  S S S S S S S E  E  S E  E     S S S S S S S E  E  S E  E   
------------------------------|------------------------------|
------------------------------|------------------------------|
------------------------------|------------------------------|
------------------------------|------------------------------|
----------------8--7----7--8--|---------------------------8--|
--0---0-0-0---0-6--5--0-5--6--|--0---0-0-0---0-1--1--0-1--6--|


  S S S S S S S E  E  S E  E     S S S S S S S E  E  S E  E   
------------------------------|------------------------------|
------------------------------|------------------------------|
------------------------------|------------------------------|
------------------------------|------------------------------|
----------------8--7----7--8--|---------------------------8--|
--0---0-0-0---0-6--5--0-5--6--|--0---0-0-0---0-1--1--0-1--6--|


  S S S S S S S E  E  S E  E   
------------------------------|
------------------------------|
------------------------------|
------------------------------|
----------------8--7----7--8--|
--0---0-0-0---0-6--5--0-5--6--|


  T T T T Q    T T T T T T T Q    T T T T T  
--------------------------------------------|
--------------------------------------------|
--------------------------------------------|
--------------------------------------------|
--------------------------------------------|
--0-0-0--------0-0-0-0-0-0-0--------0-0-0-0-|


  T T T T Q    S E  E  S S S E   
--------------------------------|
--------------------------------|
--------------------------------|
--------------------------------|
-----------------8--7----5-7-7--|
--0-0-0--------0-6--5--0-3-5-5--|


  T T T T Q    T T T T T T T Q    T T T T T  
--------------------------------------------|
--------------------------------------------|
--------------------------------------------|
--------------------------------------------|
--------------------------------------------|
--0-0-0--------0-0-0-0-0-0-0--------0-0-0-0-|


  T T T T Q    S E  E  S S S E   
--------------------------------|
--------------------------------|
--------------------------------|
--------------------------------|
-----------------8--7----5-7-7--|
--0-0-0--------0-6--5--0-3-5-5--|


     E  E   S  E   E   E   E   S  E   4x  Q.     E  E  E  Q     
|-------------------------------------||-----------------------|
|-------------------------------------||-----------------------|
|*-----------------------------------*||-----------------------|
|*-----------------------------------*||-----------------------|
|-------------------------------------||--8------8--7----------|
|---12--0--10-12--12--10--10--10-12---||--6------6--5----------|


    Solo                                           
    Q.     E  H           E  E  E  E  E  E  E  E   
|----------------------|--------------------------|
|----------------------|--------------------------|
|*---------------------|--------------------------|
|*---------------------|--------------------------|
|---2------2--2--------|--5--7-----5--7-----5--7--|
|---0------0--0--------|--3--5-----3--5-----3--5--|


         PM                                                           
  Q.     E  H           E  E  E  E  E  E  Q       Q.     E  H         
---------------------|-------------------------|---------------------|
---------------------|-------------------------|---------------------|
---------------------|-------------------------|---------------------|
---------------------|-------------------------|---------------------|
--7------7--7--------|--5--7-----5--7-----7----|--2------2--2--------|
--3------3--3--------|--3--5-----3--5-----5----|--0------0--0--------|


                                    PM           
  E  E  E  E  E  E  E  E     Q.     E  H         
--------------------------|---------------------|
--------------------------|---------------------|
--------------------------|---------------------|
--------------------------|---------------------|
--5--7-----5--7-----5--7--|--7------7--7--------|
--3--5-----3--5-----3--5--|--3------3--3--------|


  E  S E.  E  S E.  E  E       W                                     
---------------------------||-------------------|-------------------|
---------------------------||-------------------|-------------------|
--------------------------*||-------------------|-------------------|
--------------------------*||--2----------------|-------------------|
--5--7-----5--7-----5--7---||--2----------------|-------------------|
--3--5-----3--5-----3--5---||--0----------------|-------------------|


                      S S S S E  S S S S E  S S E   
-------------------|-------------------------------|
-------------------|-------------------------------|
-------------------|-------------------------------|
-------------------|-------------------------------|
-------------------|--2-2---2-5--2-2---2-5--5-6-7--|
-------------------|--0-0---0-3--0-0---0-3--3-4-5--|


                PM PM   PM PM   PM PM   PM  
    S S S S S S S  S  S S  S  S S  S  S S   
|------------------------------------------|
|------------------------------------------|
|*-----------------------------------------|
|*-----------------------------------------|
|-----5-0----------------------------------|
|---0-----0-5-6-0--0----0--0----0--0----0--|


  PM                                                               
  S  S S S S S S E  E  S S S E   4x  S S E  S S S S S S E  S E  S  
---------------------------------||-------------------------------|
---------------------------------||-------------------------------|
--------------------------------*||-------------------------------|
--------------------------------*||-------------------------------|
-----5-0------------5----5-7-7---||---------------5-----5----5--5-|
--0------0-5-6-0-0--3--0-3-5-5---||--0---0--3-5-0-3-L-0-3--0-3--3-|


  S S E  S S S S S S E  S E  S    S S E  S S S S S S E  S E  S  
-------------------------------|-------------------------------|
-------------------------------|-------------------------------|
-------------------------------|-------------------------------|
-------------------------------|-------------------------------|
---------------5-----5--5-4--3-|---------------5-----5----5--5-|
--0---0--3-5-0-3-L-0-3--3-2--1-|--0---0--3-5-0-3-L-0-3--0-3--3-|


  S S E  S S S S S S E  S E  S    S S E  S S S S S S E  S E  S  
-------------------------------|-------------------------------|
-------------------------------|-------------------------------|
-------------------------------|-------------------------------|
-------------------------------|-------------------------------|
---------------5-----5--5-4--3-|---------------5-----5----5--5-|
--0---0--3-5-0-3-L-0-3--3-2--1-|--0---0--3-5-0-3-L-0-3--0-3--3-|


  S S E  S S S S S S E  S E  S    S S E  S S S S S S E  S E  S  
-------------------------------|-------------------------------|
-------------------------------|-------------------------------|
-------------------------------|-------------------------------|
-------------------------------|-------------------------------|
---------------5-----5--5-4--3-|---------------5-----5----5--5-|
--0---0--3-5-0-3-L-0-3--3-2--1-|--0---0--3-5-0-3-L-0-3--0-3--3-|


  S S E  S S S S S S E  S S E    
-------------------------------||
-------------------------------||
-------------------------------||
-------------------------------||
---------------5---5-5--5-4----||
--0---0--3-5-0-3-L-3-3--3-2----||


Guitarra Afinada amb Re

                            Lado Oscuro                               


                                                                 Ktulu
GUITAR



      Q.     E  H           E  E  E  E  E  E  E  E   
E||----------------------|--------------------------|
B||----------------------|--------------------------|
G||*---------------------|--------------------------|
D||*---------------------|--0--2-----0--2-----0--2--|
A||---2------2--2--------|-----0--------0--------0--|
D||---2------2--2--------|--5--------5--------5-----|


         PM                                                           
  Q.     E  H           E  E  E  E  E  E  Q       Q.     E  H         
---------------------|-------------------------|---------------------|
---------------------|-------------------------|---------------------|
---------------------|-------------------------|---------------------|
--2------2-----------|-------------------------|---------------------|
------------7--------|--5--7-----5--7-----7----|--2------2--2--------|
--5------5--5--------|--5--7-----5--7-----7----|--2------2--2--------|


                                    PM           
  E  E  E  E  E  E  E  E     Q.     E  H         
--------------------------|---------------------|
--------------------------|---------------------|
--------------------------|---------------------|
--0--2-----0--2-----0--2--|--2------2-----------|
-----0--------0--------0--|------------7--------|
--5--------5--------5-----|--5------5--5--------|


  E  S E.  E  S E.  E  E        E  E  S E  E  E  E  S E   3x
---------------------------||-----------------------------||
---------------------------||-----------------------------||
--------------------------*||*---------------------------*||
--------------------------*||*--------0-2--2--0--0--0-2--*||
--5--7-----5--7-----5--7---||---7-------------------------||
--5--7-----5--7-----5--7---||------2----------------------||


  E  E  S E  E  E.  Q         E  E  S E  E  E  E  S E   8x
-------------------------||-----------------------------||
-------------------------||-----------------------------||
-------------------------||*---------------------------*||
--2-----0-2--2-----------||*--2-----0-2--2--0--0--0-2--*||
-------------------------||-----------------------------||
-----2-------------------||------2----------------------||


                            PM PM   PM PM PM PM   PM PM PM PM PM    
  Q.     E  E  E  Q         S  S  S S  E  S  S  S S  E  S  S  E   3x
-----------------------||-----------------------------------------||
-----------------------||-----------------------------------------||
-----------------------||*---------------------------------------*||
--3------3--2----------||*-------------0-------------0--0-----2--*||
--1------1--0----------||---2--2----2-----2--2----2--------6--0---||
-----------------------||---2--2----2--5--2--2----2--5--5--6------||


  S S S S E  S S S S E  S S E   
-------------------------------|
-------------------------------|
-------------------------------|
----------0----------0--0---2--|
--2-2---2----2-2---2------6-0--|
--2-2---2-5--2-2---2-5--5-6----|


                PM PM   PM PM   PM PM   PM  
    S S S S S S S  S  S S  S  S S  S  S S   
|------------------------------------------|
|------------------------------------------|
|*-----------------------------------------|
|*----0------------------------------------|
|-------0---0-1----------------------------|
|---2-----2-----2--2----2--2----2--2----2--|


  PM                                                                
  S  S S S S S S E  E  S S S E   4x   S S E  S S S S S S E  S E  S  
---------------------------------||--------------------------------|
---------------------------------||--------------------------------|
--------------------------------*||*-------------------------------|
-----0--------------0----0-2-2--*||*---------------0-----0----0--0-|
-------0---0-1-------------0-0---||------------0-------------------|
--2------2-----2-2--5--2-5-------||---2---2--5---2-5-L-2-5--2-5--5-|


  S S E  S S S S S S E  S E  S    S S E  S S S S S S E  S E  S  
-------------------------------|-------------------------------|
-------------------------------|-------------------------------|
-------------------------------|-------------------------------|
---------------0-----0--0------|---------------0-----0----0--0-|
-----------0--------------4--3-|-----------0-------------------|
--2---2--5---2-5-L-2-5--5-4--3-|--2---2--5---2-5-L-2-5--2-5--5-|


  S S E  S S S S S S E  S E  S    S S E  S S S S S S E  S E  S  
-------------------------------|-------------------------------|
-------------------------------|-------------------------------|
-------------------------------|-------------------------------|
---------------0-----0--0------|---------------0-----0----0--0-|
-----------0--------------4--3-|-----------0-------------------|
--2---2--5---2-5-L-2-5--5-4--3-|--2---2--5---2-5-L-2-5--2-5--5-|


  S S E  S S S S S S E  S S E       E  E  S E  E  E  E  S E   8x
-------------------------------||-----------------------------||
-------------------------------||-----------------------------||
-------------------------------||*---------------------------*||
---------------0---------------||*--2-----0-2--2--0--0--0-2--*||
-----------0-------5-5--5-4----||-----------------------------||
--2---2--5---2-5-L-5-5--5-4----||------2----------------------||


                            PM PM   PM PM PM PM   PM PM PM PM PM    
  Q.     E  E  E  Q         S  S  S S  E  S  S  S S  E  S  S  E   3x
-----------------------||-----------------------------------------||
-----------------------||-----------------------------------------||
-----------------------||*---------------------------------------*||
--3------3--2----------||*-------------0-------------0--0-----2--*||
--1------1--0----------||---2--2----2-----2--2----2--------6--0---||
-----------------------||---2--2----2--5--2--2----2--5--5--6------||


  S S S S E  S S S S E  S S E   
-------------------------------|
-------------------------------|
-------------------------------|
----------0----------0--0---2--|
--2-2---2----2-2---2------6-0--|
--2-2---2-5--2-2---2-5--5-6----|


                PM PM   PM PM   PM PM   PM  
    S S S S S S S  S  S S  S  S S  S  S S   
|------------------------------------------|
|------------------------------------------|
|*-----------------------------------------|
|*----0------------------------------------|
|-------0---0-1----------------------------|
|---2-----2-----2--2----2--2----2--2----2--|


  PM                                                                
  S  S S S S S S E  E  S S S E   4x   S S E  S S S S S S E  S E  S  
---------------------------------||--------------------------------|
---------------------------------||--------------------------------|
--------------------------------*||*-------------------------------|
-----0--------------0----0-2-2--*||*---------------0-----0----0--0-|
-------0---0-1-------------0-0---||------------0-------------------|
--2------2-----2-2--5--2-5-------||---2---2--5---2-5-L-2-5--2-5--5-|


  S S E  S S S S S S E  S E  S    S S E  S S S S S S E  S E  S  
-------------------------------|-------------------------------|
-------------------------------|-------------------------------|
-------------------------------|-------------------------------|
---------------0-----0--0------|---------------0-----0----0--0-|
-----------0--------------4--3-|-----------0-------------------|
--2---2--5---2-5-L-2-5--5-4--3-|--2---2--5---2-5-L-2-5--2-5--5-|


  S S E  S S S S S S E  S E  S    S S E  S S S S S S E  S E  S  
-------------------------------|-------------------------------|
-------------------------------|-------------------------------|
-------------------------------|-------------------------------|
---------------0-----0--0------|---------------0-----0----0--0-|
-----------0--------------4--3-|-----------0-------------------|
--2---2--5---2-5-L-2-5--5-4--3-|--2---2--5---2-5-L-2-5--2-5--5-|


  S S E  S S S S S S E  S S S S    S S S S S S S S S Q.     S  
--------------------------------|-----------------------------|
--------------------------------|-----------------------------|
--------------------------------|-----------------------------|
---------------0----------------|-----------------------------|
-----------0-------5-5--5-5-5-5-|--5-5-5-5-5-5-5-5-5----------|
--2---2--5---2-5-L-5-5--5-5-5-5-|--5-5-5-5-5-5-5-5-5----------|


  T T T T Q    T T T T T T T Q    T T T T T  
--------------------------------------------|
--------------------------------------------|
--------------------------------------------|
--------------------------------------------|
--------------------------------------------|
--2-2-2--------2-2-2-2-2-2-2--------2-2-2-2-|


  T T T T Q    S E  E  S S S E   
--------------------------------|
--------------------------------|
--------------------------------|
-----------------3--2----0-2-2--|
-----------------1--0------0-0--|
--2-2-2--------2-------2-5------|


  T T T T Q    T T T T T T T Q    T T T T T  
--------------------------------------------|
--------------------------------------------|
--------------------------------------------|
--------------------------------------------|
--------------------------------------------|
--2-2-2--------2-2-2-2-2-2-2--------2-2-2-2-|


  T T T T Q    S E  E  S S S E     S S S S S S S E  E  S E  E   
--------------------------------|------------------------------|
--------------------------------|------------------------------|
--------------------------------|------------------------------|
-----------------3--2----0-2-2--|---------------------------3--|
-----------------1--0------0-0--|---------------------------1--|
--2-2-2--------2-------2-5------|--2---2-2-2---2-3--3--2-3-----|


  S S S S S S S E  E  S E  E     S S S S S S S E  E  S E  E   
------------------------------|------------------------------|
------------------------------|------------------------------|
------------------------------|------------------------------|
----------------3--2----2--3--|---------------------------3--|
----------------1--0----0--1--|---------------------------1--|
--2---2-2-2---2-------2-------|--2---2-2-2---2-3--3--2-3-----|


  S S S S S S S E  E  S E  E     S S S S S S S E  E  S E  E   
------------------------------|------------------------------|
------------------------------|------------------------------|
------------------------------|------------------------------|
----------------3--2----2--3--|---------------------------3--|
----------------1--0----0--1--|---------------------------1--|
--2---2-2-2---2-------2-------|--2---2-2-2---2-3--3--2-3-----|


  S S S S S S S E  E  S E  E   
------------------------------|
------------------------------|
------------------------------|
----------------3--2----2--3--|
----------------1--0----0--1--|
--2---2-2-2---2-------2-------|


  T T T T Q    T T T T T T T Q    T T T T T  
--------------------------------------------|
--------------------------------------------|
--------------------------------------------|
--------------------------------------------|
--------------------------------------------|
--2-2-2--------2-2-2-2-2-2-2--------2-2-2-2-|


  T T T T Q    S E  E  S S S E   
--------------------------------|
--------------------------------|
--------------------------------|
-----------------3--2----0-2-2--|
-----------------1--0------0-0--|
--2-2-2--------2-------2-5------|


  T T T T Q    T T T T T T T Q    T T T T T  
--------------------------------------------|
--------------------------------------------|
--------------------------------------------|
--------------------------------------------|
--------------------------------------------|
--2-2-2--------2-2-2-2-2-2-2--------2-2-2-2-|


  T T T T Q    S E  E  S S S E       E  E  S E  E  E  E  S E   4x
--------------------------------||-----------------------------||
--------------------------------||-----------------------------||
--------------------------------||*---------------------------*||
-----------------3--2----0-2-2--||*--2-----0-2--2--0--0--0-2--*||
-----------------1--0------0-0--||-----------------------------||
--2-2-2--------2-------2-5------||------2----------------------||


                            Solo                
  Q.     E  E  E  Q         Q.     E  H         
-----------------------||----------------------|
-----------------------||----------------------|
-----------------------||*---------------------|
--3------3--2----------||*---------------------|
--1------1--0----------||---2------2--2--------|
-----------------------||---2------2--2--------|


                                    PM           
  E  E  E  E  E  E  E  E     Q.     E  H         
--------------------------|---------------------|
--------------------------|---------------------|
--------------------------|---------------------|
--0--2-----0--2-----0--2--|--2------2-----------|
-----0--------0--------0--|------------7--------|
--5--------5--------5-----|--5------5--5--------|


  E  E  E  E  E  E  Q       Q.     E  H         
-------------------------|---------------------|
-------------------------|---------------------|
-------------------------|---------------------|
-------------------------|---------------------|
--5--7-----5--7-----7----|--2------2--2--------|
--5--7-----5--7-----7----|--2------2--2--------|


                                    PM           
  E  E  E  E  E  E  E  E     Q.     E  H         
--------------------------|---------------------|
--------------------------|---------------------|
--------------------------|---------------------|
--0--2-----0--2-----0--2--|--2------2-----------|
-----0--------0--------0--|------------7--------|
--5--------5--------5-----|--5------5--5--------|


  E  S E.  E  S E.  E  E       W                                     
---------------------------||-------------------|-------------------|
---------------------------||-------------------|-------------------|
--------------------------*||-------------------|-------------------|
--------------------------*||--2----------------|-------------------|
--5--7-----5--7-----5--7---||--2----------------|-------------------|
--5--7-----5--7-----5--7---||--2----------------|-------------------|


                      S S S S E  S S S S E  S S E   
-------------------|-------------------------------|
-------------------|-------------------------------|
-------------------|-------------------------------|
-------------------|----------0----------0--0---2--|
-------------------|--2-2---2----2-2---2------6-0--|
-------------------|--2-2---2-5--2-2---2-5--5-6----|


                PM PM   PM PM   PM PM   PM  
    S S S S S S S  S  S S  S  S S  S  S S   
|------------------------------------------|
|------------------------------------------|
|*-----------------------------------------|
|*----0------------------------------------|
|-------0---0-1----------------------------|
|---2-----2-----2--2----2--2----2--2----2--|


  PM                                                               
  S  S S S S S S E  E  S S S E   4x  S S E  S S S S S S E  S E  S  
---------------------------------||-------------------------------|
---------------------------------||-------------------------------|
--------------------------------*||-------------------------------|
-----0--------------0----0-2-2--*||---------------0-----0----0--0-|
-------0---0-1-------------0-0---||-----------0-------------------|
--2------2-----2-2--5--2-5-------||--2---2--5---2-5-L-2-5--2-5--5-|


  S S E  S S S S S S E  S E  S    S S E  S S S S S S E  S E  S  
-------------------------------|-------------------------------|
-------------------------------|-------------------------------|
-------------------------------|-------------------------------|
---------------0-----0--0------|---------------0-----0----0--0-|
-----------0--------------4--3-|-----------0-------------------|
--2---2--5---2-5-L-2-5--5-4--3-|--2---2--5---2-5-L-2-5--2-5--5-|


  S S E  S S S S S S E  S E  S    S S E  S S S S S S E  S E  S  
-------------------------------|-------------------------------|
-------------------------------|-------------------------------|
-------------------------------|-------------------------------|
---------------0-----0--0------|---------------0-----0----0--0-|
-----------0--------------4--3-|-----------0-------------------|
--2---2--5---2-5-L-2-5--5-4--3-|--2---2--5---2-5-L-2-5--2-5--5-|


  S S E  S S S S S S E  S E  S    S S E  S S S S S S E  S E  S  
-------------------------------|-------------------------------|
-------------------------------|-------------------------------|
-------------------------------|-------------------------------|
---------------0-----0--0------|---------------0-----0----0--0-|
-----------0--------------4--3-|-----------0-------------------|
--2---2--5---2-5-L-2-5--5-4--3-|--2---2--5---2-5-L-2-5--2-5--5-|


  S S E  S S S S S S E  S S E    
-------------------------------||
-------------------------------||
-------------------------------||
---------------0---------------||
-----------0-------5-5--5-4----||
--2---2--5---2-5-L-5-5--5-4----||



Duration Legend
---------------
W - whole
H - half
Q - quarter
E - 8th
S - 16th
T - 32nd
X - 64th
. - note dotted
|-n-|  - n-tuplets


Tablature Legend
----------------
L - tied note
x - dead note
g - grace note
(n) - ghost note
> - accentuded note
NH - natural harmonic
AH - artificial harmonic
TH - tapped harmonic
SH - semi harmonic
PH - pitch harmonic
h - hammer on
p - pull off
b - bend
br - bendRelease
pb - preBend
pbr - preBendRelease
brb - bendReleaseBend

/ - tremolo bar dip

 - tremolo bar dive
-/n - tremolo bar Release up
/n - tremolo bar inverted dip
/n - tremolo bar return
-
 - tremolo bar Release down
S - shift slide
s - legato slide
/ -  slide into from below or out of upwards
 -  slide into from above or out of downwards
~ - vibrato
W - wide vibrato
tr - trill
TP - tremolo picking
T - tapping
S - slap
P - pop
< - fade in
^ - brush up
v - brush down
ExpandirContraure

27 Comentaris. Comenta


Posa aquí la URL del vídeo d'un youtube (opcinal)

cago en la leche con esta pagina hasta estoy aprendiendo catalán, de todas formas hay un par de videos que no entiendo mu bien ya dire cuales a ver si alguien me echa una mano. visca el thrash!
By anònim over 9 years ago.
divendres 28 de maig=dema passat

KTULU i k-brons gratis a les festes del barri de la Prosperitat-

a la pça.Angel Pestanya-a partir de les 10 de la nit-no hos ho perdeu perque valdra la pena!!!!!!!KANYAAAAAAAAAAAAA COLLOOOOOOOOOOOOOOOOOOOOOOOONS!!!!!!!
By anònim over 9 years ago.
L'hauré vist 50 vegades i m'encanta!!!
By garrotxamusical over 9 years ago.
David: eres un crack!!

Y a ti, Píter, no te digo nada, TE LO HAGO. jajaja!!!



Un bico.



Belize.
By anònim over 9 years ago.
molt bona lliço, sou uns cracs de la guitarra..........
By anònim over 9 years ago.
tremendo!

sisplau k algu fiki walk o kualsevol altre d panteraa
By mato over 10 years ago.
Lado oscuro es una canción con mucho sentimiento, ideal para ligarte a alguna pijita en la disco... pero le dan un aire de rumba catalana que no le pega nada...



:-)

Saludos
By anònim over 10 years ago.
BRUTAL on toca aquesta gent!!!

que hi vaix per nasos jaja

mola molt!!!

enga a cuuidarse mestres de la guitarra!!

jaaj



xfxalbers (feia pal logejarme -.-)
By anònim over 10 years ago.
Ja ja ja fixeu-los aquest parell-quins cracks!!!visca Ktulu!!!
By anònim over 10 years ago.
BRUTAL!!!!!!!!
By anònim over 10 years ago.

Aquest vídeo és treball propi del professor i representa la seva interpretació personal de la cançó. El material contingut en aquesta pàgina és exclusiu per a ús privat, de manera que es prohibeix la seva reproducció o retransmissió, així com el seu ús per a fins comercials.

Tocamela!

362 Vídeos de 56 professors amb 14.070 comentaris, vistos: 12.925.101 vegades.

Sobre nosaltres

TOCAMELA és una iniciativa de la Associació de Músics Online Toca; amb el principal objectiu de passar-ho bé, ensenyar i conquerir el món i esclavitzar la humanitat.



© 2019 Asoc. Toca & Albert Catalan | Condicions legals | Desenvolupat per Dospixels web development