Tocamela

Vídeo Tutorials de cançons fàcils

Vídeo Oficial Tocamela

Hysteria [All Riffs] Muse

Hysteria [All Riffs]

Has de tenir el Javascript activat i l'última versió del Flash player per poder veure aquest vídeo

15/01/2010 18.824 Vistes

Aquest vídeo està al(s) curso(s): Curso de Rock.
Hysteria [All Riffs] Backing Track


Nota de Hysteria [All Riffs]:

Hola amics!! Bueno, tenia això perdut pel disc....ja tocava editar-ho!!

Son tots els riffs de la canó Hysteria de MUSE. Si, ja se, no son exactament igual que a la cançó però vaja.....molt aproximat. I si, tampoc respeto gaire els hammer o els pull a la part lenta, però bueno ja em coneixeu, jo us explico me so menys per on tira i vosaltres li doneu el vostre toque :P

Espero que us agradi!!

Comenta aquest vídeo al fòrum

Hola amigos! Bueno, tenía esto perdido por el disco .... ya tocaba editarlo!

Son todos los riffs de cañón Hysteria de MUSE. Si, ya se, no son exactamente igual que a la canción pero en fin ..... muy aproximado. Y si, tampoco respeto mucho los hammer o pull en la parte lenta, pero bueno ya me conocéis, yo os cuento me so menos por donde tira y vosotros le da su toque: P

Espero que os guste!

Comenta este vídeo en el Foro

ExpandirContraure
Tablatura de Hysteria [All Riffs]:
INTRO

E||--------------------------------------|-------------------------------------------|
B||--------------------------------------|-------------------------------------------|
G||--------------------------------------|-------------------------------------------|
D||--------------------------------------|-------------------------------------------|
A||--0-0-10-0-10-12-0-10-0-7-0-8-8-7-5-7-|-------------------------------------------|
E||--------------------------------------|--0-0-10-0-10-12-0-15-0-12-0-15-15-0-15-17-|                                      

---------------------------------------|------------------------------------|
---------------------------------------|------------------------------------|
---------------------------------------|------------------------------------|
--0-0-10-0-10-12-0-10-0-10-9-0-9-8-0-8-|7-----------------------------------|
---------------------------------------|--0-10-0-10-12-0-10-0-7-0-8-8-7-5-7-|
---------------------------------------|------------------------------------|


MAIN RIFF:

E||-----------------------------------|-----------------------------------|
B||-----------------------x-12r---10~-|-----------------------x-12r---10~-|
G||--14--14-14-14--14-14--x-----------|--13--13-13-13--13-13--x-----------|
D||--x---x--x--x---x--x---x-----------|--x---x--x--x---x--x---x-----------|
A||--12--12-12-12--12-12--------------|--11--11-11-11--11-11--------------|
E||-----------------------------------|-----------------------------------|



-----------------------------------|-------------------------------||
-----------------------x-12r---10~-|-----------------x-12r-12r-12r-||
--10--10-10-10--10-10--x-----------|--9--9-9-9--9-9--x-------------||
--x---x--x--x---x--x---x-----------|--x--x-x-x--x-x--x-------------||
--8---8--8--8---8--8---------------|--7--7-7-7--7-7----------------||
-----------------------------------|-------------------------------||


OUTRO:

E||---------------------------------------|
B||---------------------------------------|
G||---------------------------------------|
D||---------------------------------------|
A||---------------------------------------|
E||--0-0-10-0-10-12-0-10-0-10-9-0-9-8-0-8-|

---------------------------------------|------------------------------------|
---------------------------------------|------------------------------------|
---------------------------------------|------------------------------------|
---------------------------------------|------------------------------------|
---------------------------------------|------------------------------------|
--7-0-10-0-10-12-0-10-0-10-9-0-9-8-0-8-|7-0-10-0-10-12-0-10-0-10-9-0-9-8-0-8|

--------------------------------------------||
--------------------------------------------||
--------------------------------------------||
--------------------------------------------||
--------------------------------------------||
--7-0-10-0-10-12-0-15-0-12-0-15-15-12-15h17-||


SOLO:

Parte 1

E||--------12-12-------13-13-------13-13-12-12----12-|
B||--------------------------------------------------|
G||--14-14-------14-14-------14-14-------------14----|
D||--------------------------------------------------|
A||--------------------------------------------------|
E||--------------------------------------------------|

--------12-12-------13-13-------13-13-12-12-----|
------------------------------------------------|
--13-13-------13-13-------13-13-------------13--|
------------------------------------------------|
------------------------------------------------|
------------------------------------------------|

--------12-12-------17-17-------13-13-------12-12-|
--------------------------------------------------|
--14-14-------14-14-------14-14-------14-14-------|
--------------------------------------------------|
--------------------------------------------------|
--------------------------------------------------|

--------12-12-------13-13-------13-13-12-12----12-|
--------------------------------------------------|
--14-14-------14-14-------14-14-------------14----|
--------------------------------------------------|
--------------------------------------------------|
--------------------------------------------------|

--------12-12-------13-13-------13-13-12-12----12-|
--------------------------------------------------|
--14-14-------14-14-------14-14-------------14----|
--------------------------------------------------|
--------------------------------------------------|
--------------------------------------------------|

--------12-12-------13-13-------13-13-12-12-----|
------------------------------------------------|
--13-13-------13-13-------13-13-------------13--|
------------------------------------------------|
------------------------------------------------|
------------------------------------------------|

--------12-12-------17-17-------13-13-------12-12-|
--------------------------------------------------|
--14-14-------14-14-------14-14-------14-14-------|
--------------------------------------------------|
--------------------------------------------------|
--------------------------------------------------|

--12----------------------------------------------||
--------------15----------13----------12----------||
-----14-14-14-------------------------------------||
-----------------15-15-15----14-14-14----12-12-12-||
--------------------------------------------------||
--------------------------------------------------||

Parte 2

E||------------------------------|------------------------------|
B||--13--------------13--12------|--12--------------12--12--13--|
G||------12------------------14--|------12----------------------|
D||----------14------------------|----------12------------------|
A||------------------------------|------------------------------|
E||------------------------------|------------------------------|

------------------------------|------------------------------|
--15--------------15--13--12--|--13--------------15--13--12--|
------14----------------------|------14----------------------|
----------15------------------|----------14------------------|
------------------------------|------------------------------|
------------------------------|------------------------------|

----------------------------|------------------------------|
--13--------------12r---10--|--12--------------12--13--13b-|
------12--------------------|------12----------------------|
----------14----------------|----------12------------------|
----------------------------|------------------------------|
----------------------------|------------------------------|

--------------------------|------------------------||
--------------15--13--12--|--13--------------------||
--------------------------|------14----------------||
------14------------------|----------14------------||
--------------------------|------------------------||
--------------------------|------------------------||
ExpandirContraure

6 Comentaris. Comenta


Posa aquí la URL del vídeo d'un youtube (opcinal)

en el segundo riff como se le da ese eco a la guitarra?¿

By anònim over 9 years ago.
en el segundo riff como se le da ese eco a la guitarra?¿

By anònim over 9 years ago.
Fantástico, Mr. PAC!
By anònim over 10 years ago.
AAAAAAAAAAH, me la finlao un chunguete badalonaaa!! se va ve...
By valls over 10 years ago.
Muy bueno, perrete!
By blackmogul over 10 years ago.
Fantastico, oye! =D



Si, es que ya no se que mas ponerte, tu, en el foro he puesto el resto =P ;)
By toletum91zgz over 10 years ago.

Aquest vídeo és treball propi del professor i representa la seva interpretació personal de la cançó. El material contingut en aquesta pàgina és exclusiu per a ús privat, de manera que es prohibeix la seva reproducció o retransmissió, així com el seu ús per a fins comercials.

Tocamela!

362 Vídeos de 56 professors amb 14.070 comentaris, vistos: 12.929.973 vegades.

Sobre nosaltres

TOCAMELA és una iniciativa de la Associació de Músics Online Toca; amb el principal objectiu de passar-ho bé, ensenyar i conquerir el món i esclavitzar la humanitat.



© 2019 Asoc. Toca & Albert Catalan | Condicions legals | Desenvolupat per Dospixels web development