Tocamela

Vídeo Tutorials de cançons fàcils

Vídeo Oficial Tocamela

No me mires Los Suaves

No me mires

Has de tenir el Javascript activat i l'última versió del Flash player per poder veure aquest vídeo

21/05/2009 18.916 Vistes

Aquest vídeo està al(s) curso(s): Curso de Rock.
No me mires Acords:
Lam
lam
Mim
mim
Rem
rem
Do
do
Sol
sol-4
Tablatura de No me mires:
Part A:
|
|Lam                         Mim         
|
|---0----0------------------|----------------|
|------3------1----0--------|----0----0------| 
|-----------2----2----0---0-|-------2------0-| x8
|-----------------------2---|------------2---| 
|-0-------------------------|----------------| 
|---------------------------|-0--------------| 
|
|
|Final riff A (acabant de la manera indicada a cada estrofa)
|
| 1ª,3ª,5ª,7ª      2ª,6ª           4ª                    8ª
|
|--------------| |-----0-------| |---3--5--5s7---<12>-| |--------------|
|--------------| |-------0---0-| |---0-----0-----<12>-| |--------------|
|---0----------| |---0-----0---| |---0-----0-----<12>-| |---0----------|
|-2------------| |-2-----------| |-2------------------| |-2------------|
|--------------| |-------------| |--------------------| |-----3P0-3----|
|-----3P0-3----| |-------------| |--------------------| |--------------|
|
|
|
|Tornada (B):
|
| Rem                             Mim
|
|-------1---------------1p0-----|-------3-----3---------3-------|
|---------3---3-----3---------3-|---------5-----5---5-----5---5-|
|-----2-----2-----2---2-----2---|-----4-----4-----4---4-----4---|  x2
|-0-------------0---------------|-------------------------------|
|-------------------------------|-------------------------------|
|-------------------------------|-0-----------------------------|
|
|
| Lam           Do                Sol                             Mim
|
|-------0---------------0-----0-|-3----3-3-3-3----3-3-3-3---3-3-|-0----<12>----||
|---------1---------------1-----|-3----3-3-3-3----3-3-3-3---3-3-|-0----<12>----||
|-----2---------------------0---|-0----0-0-0-0----0-0-0-0---0-0-|-0----<12>----||
|-------------------2-----------|-0----0-0-0-0----0-0-0-0---0-0-|-2------------||
|-0---------0-2-3---------------|-2----2-2-2-2----2-2-2-2---2-2-|-2------------||
|-------------------------------|-3----3-3-3-3----3-3-3-3---3-3-|-0------------||
|
ExpandirContraure
LLetra de No me mires:
| Intro guitarra es toca
| (A+1,A+2,A+1,A+3)
|
| (A+1)
| NO ME MIRES CUANDO CRUCES 
|
| (A+2)
| POR LA ACERA DE MI CALLE
|
| (A+1)
| NO ME MIRES CUANDO PASES 
|
| (A+4)
| POR ESTA CALLE SIN LUCES 
| 
| (B)
| MIRAME CUANDO LA LUNA
| SE ASOMA POR LA VENTANA 
| Y TE DEJAS ABRAZAR
| ACOSTADA AQUI EN MI ALMOHADA 
|
| (A...)
| NO ME MIRES CUANDO ESCUCHES 
| AL RELOJ DECIR QUE ES TARDE
| NO TE ESCONDAS NO TE MARCHES 
| COMO ESTRELLAS ENTRE NUBES
|
| (B)
| MIRAME CUANDO LA LUNA
| SE ASOMA POR LA VENTANA
| Y TE DEJAS ABRAZAR
| ACOSTADA AQUI EN MI ALMOHADA
ExpandirContraure

13 Comentaris. Comenta


Posa aquí la URL del vídeo d'un youtube (opcinal)

todos estos videos son exelentes mires saben que estoy aprendiendo

pero  no me sale como sacar los ritmos me podrian enviar algun video mi correo es shaggystuart@hotmail.es

se los voy agradecer mucho  

estos videos son exelentes}
By anònim over 9 years ago.
costa mes del que sembla, pero surtira. gran tema valls, mersi.
By anònim over 9 years ago.
Valls, tu tb et posaràs perruca? jeje. Mireu aquest, està més penjat que vosaltres, però ho fa bé.



http://www.youtube.com/watch?v=pr0JB5uH230&feature=related
By madmax over 9 years ago.
muy wapo.soy de orense.tenias que tocar libertad[spoiler][/spoiler]




By anònim over 9 years ago.
muy wapo.soy de orense.tenias que tocar libertad
By anònim over 9 years ago.
muy wapo.soy de orense.tenias que tocar libertad
By anònim over 9 years ago.
tu marranot, que vinc a fer una birra a ca teu, em presento en mitja horeta!
By valls over 10 years ago.
AL FINAL ME TOCARA COMPRAR UNA GUITARRA!!!!

OLE,OLE Y OLE!

By anònim over 10 years ago.
Per cert, per que no la canteu?
By bendo over 10 years ago.
che si que sona be eixa guitarra. a vore si ens conseguiu un descompte amb les guitarres que en venu vosaltres
By anònim over 10 years ago.

Aquest vídeo és treball propi del professor i representa la seva interpretació personal de la cançó. El material contingut en aquesta pàgina és exclusiu per a ús privat, de manera que es prohibeix la seva reproducció o retransmissió, així com el seu ús per a fins comercials.

Tocamela!

362 Vídeos de 56 professors amb 14.067 comentaris, vistos: 12.785.660 vegades.

Sobre nosaltres

TOCAMELA és una iniciativa de la Associació de Músics Online Toca; amb el principal objectiu de passar-ho bé, ensenyar i conquerir el món i esclavitzar la humanitat.



© 2018 Asoc. Toca & Albert Catalan | Condicions legals | Desenvolupat per Dospixels web development