Tocamela

Vídeo Tutorials de cançons fàcils

Vídeo Oficial Tocamela

Quan somrius Josep Thió

Quan somrius

Has de tenir el Javascript activat i l'última versió del Flash player per poder veure aquest vídeo

17/12/2008 29.234 Vistes
Quan somrius Acords:
Do
do
Fa7
fa7
Fa
fa
Lam
lam
Sol
sol-4
Rem7
rem7
Nota de Quan somrius:

-Rose: veu
-Intra: guitarres i veu
-Joaquin: baix, bateria i tècnic de so
-Lobo: veu, bateria i tècnic de so
-David: veu i moments intel·lectuals.

 

Solo 1
|------------5-7-8-7-5-7-8-5-7-5------5---5----------8-10b12==10pb12-10pb12-10pb12r10-8-10p8----|
|------5-6-8---------------------8-/6---6---6-5-8-10-----------------------------------------10-|
|-/5-7------------------------------------------------------------------------------------------|
|-----------------------------------------------------------------------------------------------|
|-----------------------------------------------------------------------------------------------|
|-----------------------------------------------------------------------------------------------|


|--------15--------15--------------------------------|
|-15b17=====15pb17----15pb17r15-13-------------------|
|----------------------------------14-12-------------|
|----------------------------------------14s15-14----|
|----------------------------------------------------|
|----------------------------------------------------|
Tablature Legend
----------------
h   - hammer-on
p   - pull-off
 b   - bend
 pb  - pre-bend
 r   - bend release (if no number after the r, then release immediately)
 /  - slide into or out of (from/to "nowhere")
 s   - legato slide
 S   - shift slide
  - natural harmonic
[n]  - artificial harmonic
n(n) - tapped harmonic
 ~   - vibrato
 tr  - trill
 T   - tap
 TP  - trem. picking
 PM  - palm muting
n/  - tremolo bar dip; n = amount to dip
 n  - tremolo bar down
 n/  - tremolo bar up
/n  - tremolo bar inverted dip
 =   - hold bend; also acts as connecting device for hammers/pulls
 <>  - volume swell (louder/softer)
 x   - on rhythm slash represents muted slash
 o   - on rhythm slash represents single note slash
ExpandirContraure

32 Comentaris. Comenta


Posa aquí la URL del vídeo d'un youtube (opcinal)

falta ensenyar el solo, els guitarristes solises "novatos" necessiten aprendrese'l per aquest nadal (obligació de l'institut)
By anònim over 7 years ago.
M'encanta!
By anònim over 7 years ago.
es preciosa :(
By murderxcity over 9 years ago.
mancanta aquesta canco latenim que cantar al cole i ens va molt ve
By anònim over 9 years ago.
intra,pots ensenyar la tablatura de el mig de la canço de celtas cortos- la senda del tiempo. Penja el video si pots.Siusplau i gràcies.
By anònim over 9 years ago.
Intraaa kraaaaak!!!
By KURU over 9 years ago.
Per fer peticions de videos, sisplau, dirigiu-vos al fòrum: http://forum.tocamela.cat/viewforum.php?f=110



Per peticions de tablatures i acords: http://forum.tocamela.cat/viewtopic.php?f=31&t=1311



Moltes gràcies!

Salut!
By Intra over 10 years ago.
intra, podries posar els acords de la cançó:el reloj de arena - dr pitangú.Merci

By anònim over 10 years ago.
De moment he posat el del primer solo, compte amb els prebends (pb) i sobretot amb les notes que es deixen sonar mentre se'n toca una altra, que no he sabut com marcar-ho a la tablatura.
By Intra over 10 years ago.
sergi93



mersi!
By anònim over 10 years ago.

Aquest vídeo és treball propi del professor i representa la seva interpretació personal de la cançó. El material contingut en aquesta pàgina és exclusiu per a ús privat, de manera que es prohibeix la seva reproducció o retransmissió, així com el seu ús per a fins comercials.

Tocamela!

362 Vídeos de 56 professors amb 14.067 comentaris, vistos: 12.785.672 vegades.

Sobre nosaltres

TOCAMELA és una iniciativa de la Associació de Músics Online Toca; amb el principal objectiu de passar-ho bé, ensenyar i conquerir el món i esclavitzar la humanitat.



© 2018 Asoc. Toca & Albert Catalan | Condicions legals | Desenvolupat per Dospixels web development