Tocamela

Vídeo Tutorials de cançons fàcils

Vídeo Oficial Tocamela

Segon Plat Els Pets

Segon Plat

Has de tenir el Javascript activat i l'última versió del Flash player per poder veure aquest vídeo

11/02/2008 15.858 Vistes
Segon Plat Acords:
Lam
lam
Sol
sol-4
Do
do
Fa
fa
Sol#
sol_
Nota de Segon Plat:
Puntejat:
|--------------------------------|
|--------------------------------|
|----------------------------0-0-|
|--------------------------------|
|---------0----3-3--2--0---------|
|-3-3-4-------------------3------|

|------------------------------------|
|------------------------------------|
|----------------------------0-------|
|------------------------------------|
|---------0----3-3--2--0---------2---|
|-3-3-4-------------------3----3---3-|

Com llegir la tabulatura
ExpandirContraure

16 Comentaris. Comenta


Posa aquí la URL del vídeo d'un youtube (opcinal)

Intro x2<br />
------------------------------------------------<br />
------------------------------------------------<br />
------------------------------------------------<br />
-------------------0-0-------------------0------<br />
-------0-3-3-2-0-------------0-3-3-2-0-------2--<br />
-3-3-4-----------3-----3-3-4-----------3---3---3<br />
<br />
<br />
By anònim over 8 years ago.
No se si sóc l'únic a qui passa, però la versió que jo tinc de la cançó la toca en una altra tonalitat.

La toca un to més avall, és a dir en lloc de La m, Sol ... toca Sol m, Fa, Si b, Mi b, Fa #

El mateix passa amb el punteig...
By anònim over 10 years ago.
Una de dos: o en Xavi va gravar un munt de cançons el mateix dia, o no li arriba per samarretes i ja no se la canvia.

En tot cas, un crack. Tinc enveja, i no molt sana...
By madkilly over 11 years ago.
wenas.

ole ole

q currat
By danib over 11 years ago.
Molt xula!!

Una cosa, crec que en la tablatura del puntejat, les notes a l'aire de la 3º corda no haurien de ser a la 4º??

By frederic over 11 years ago.
eii bones gent del tocamela!

Primer comentari que deixo tot i k ja fa bastant k us segueixo!:)

bona cançó i bon video xavi,per cert, tas fixat k el puntexat de la cançó si es fes mes lent i amb una altre tonalitat seria iwal que el de la cançó de Nirvana 'come as you are'??

copiadeta d'en gavaldà? jeje!

By Elvis over 11 years ago.
Ueeeeeeeeeee!!! 100 videos yaaa :D aupa 200 =)

Molt bona la canço, ara a aprendre-la Gracies ! =)
By Serginho_Bl over 11 years ago.
yeahhhhhh!!

eres buenisimo no tienen algun correo donde les pueda escribir personalmente??

es q son exelentes clacs
By fabian ºmichº over 11 years ago.
Yeahhh!!! al vídeo número 100!!!!
By tocamela over 11 years ago.
hoye me encanto mucho al cancion, pero no la puedo encontran en la web, alguien sabe done pueda comprarla o descargarla
By Chronols over 11 years ago.

Aquest vídeo és treball propi del professor i representa la seva interpretació personal de la cançó. El material contingut en aquesta pàgina és exclusiu per a ús privat, de manera que es prohibeix la seva reproducció o retransmissió, així com el seu ús per a fins comercials.

Tocamela!

362 Vídeos de 56 professors amb 14.070 comentaris, vistos: 12.924.828 vegades.

Sobre nosaltres

TOCAMELA és una iniciativa de la Associació de Músics Online Toca; amb el principal objectiu de passar-ho bé, ensenyar i conquerir el món i esclavitzar la humanitat.



© 2019 Asoc. Toca & Albert Catalan | Condicions legals | Desenvolupat per Dospixels web development