Tocamela

Vídeo Tutorials de cançons fàcils

Vídeo Oficial Tocamela

Soldadito Marinero Fito y los Fitipaldis

Soldadito Marinero

Has de tenir el Javascript activat i l'última versió del Flash player per poder veure aquest vídeo

27/05/2009 65.445 Vistes
Soldadito Marinero Acords:
La
la
Sol
sol-4
Re
re
Sim
sim
Nota de Soldadito Marinero:
ExpandirContraure
Tablatura de Soldadito Marinero:
               G       D      Bm         A             G       D             Bm A           D

E--------------3-------2-----------------0--------------------------------------------------2----------
B--------------3-------3-----------------2---------------3--------3-------------------------3----------
G--------------0-------2-----------------2-------------0---0--------2-2---------------------2----------
D---2h4-2-0----0-----0----0h4-7-0h4-4h7--2---------------------0----------0h4-7-2-2/42p0-0------------
A--------------2---0---------------------0---2h4-2-0---------------------------------------------------
E------------3-3-------------------------------------3-------------------------------------------------

A                    G                       D  (riff 1)
Él camina despacito que las prisas no son buenas

Bm                     D                  A     (riff 2)
En su brazo dobladita con cuidado la chaqueta

G                                             D     (riff 3) 
Luego pasa por las calles donde los chavales juegan

Bm                        A                 D        
Él también quiso ser niño pero le pilló la guerra

E------------
B------------
G------------
D---2h4-2-0--   (despues de esto entramos en el estribillo en G)
A------------
E------------


(estribillo)
G                                     D
Soldadito marinero conociste a una sirena

Bm                                                A   (riff 4)
De esas que dicen “te quiero” si ven la cartera llena

G                                       D    
Escogiste a la más guapa y a la menos buena (riff 5)   

Bm                       A                   D
Sin saber como ha venido te ha cogido la tormenta

(ahora haremos un punteo, no es complicado


                G                 D                   Bm     A    D (notas acompañamiento-> 2a guitarra, la primera solo toca el G inicial y el punteo)
 (rascar el G hacia abajo solo una vez)     
E---------------3-------------------------------------2p0----0----2---- 
B---------------3-------------------------------------3------2----3----
G-----------------------------------------------------4------2----2---- 
D---2h4-2-0---------------7h9-7----7--------2h4-2-0-4------2----0------
A---------------2----------------9-------------------------------------
E---------------3------------------------------------------------------


A                            G               D   (riff 1) o (riff 6*)  (estos riff no son realmente los del principio, pero se parecen bastante asi que para empezar van bien, pongo los "buenos" para los que quieran)
Él quería cruzar los mares y olvidar a su sirena

Bm                         D                  A  (riff 2) o (riff 7*)
La verdad no fue difícil cuando conoció a Mariela

G                                                  D    (riff 3) o (riff 8*)
Que tenía los ojos verdes y un negocio entre las piernas

Bm                        A                   D
Hay que ver que puntería no te arrimas a una buena


(estribillo)
G                                     D
Soldadito marinero conociste a una sirena

Bm                                                A   (riff 4) o (riff 9*)
De esas que dicen “te quiero” si ven la cartera llena

G                                       D    (riff 5) o (riff 10*)
Escogiste a la más guapa y a la menos buena

Bm                       A                   D
Sin saber como ha venido te ha cogido la tormenta



(ahora haremos un punteo que tampoco he explicado en el video, el principio de este punteo es facil, luego se complica, pero tampoco es nada del otro mundo, es cuestion de practica y escuchar mucho la cancion para perfeccionarlo)

              G        D              Bm     A                   G                                         D        Bm-A-D
                                
               full bend
E------------------/__-------------------------------------------------------/14-10----------------------------------------
B------------------10--10-----------7----------(/12)--------10-9-8---------12---------12p10h12p10h12----------------7-------
G---/11--97----------------------7---9--764--------11-11----------11h12---------------------------10h11-7-----------9--7-
D------------65-------------7h9------------------------------------------------------------------------------7h9-7---------
A---------------------------------------------------------------------------------------------------------------------------
E---------------------------------------------------------------------------------------------------------------------------


(es esta parte de la cancion tenemos que hacer el "punteo del principio", lo tenemos que hacer justamente en la parte en "negrita")

G                            D
   Después de un invierno malo

                  A
   Una mala primavera

                          G
   dime por que estás buscando 

E------------
B------------
G------------
D---2h4-2-0--   
A------------
E------------

                       G
   Una lágrima en la arena 

E------------
B------------
G------------
D---2h4-2-0--   
A------------
E------------

(repetimos 3 veces)

acabamos con:


                          D(tocamos una vez hacia abajo y empezamos el riff final)
   Después de un invierno malo

 riff final

E----------2-0--------2---
B------3------------3---3-
G----2---2--------2-------
D---------------0---------
A-------------------------
E-------------------------






riff 1                  riff 2                    riff 3                       

E---------------0----   E----------------------   E------------0-------------   
B---------3-------3--   B--------0-2h3-2-0-----   B----3---------3-----------   
G-------2---2--------   G------2---------------   G------2-2-2---------------   
D-------------0------   D--2h4-----------------   D--0-----------------------   
A--------------------   A----------------------   A--------------------------   
E--------------------   E----------------------   E--------------------------   



riff 4                  riff 5                    

E------------------    E----------0------------  
B-----2------------    B---3--------3----------   
G---2---2----------    G-----2-----------------  
D---------2h4-2-0--    D-------0---------------  
A------------------    A-----------------------  
E------------------    E----------------------- 

    (*)

    riff 6                        riff 7

E---------0--------------     E------------------------
B---3-------3------------     B---------2---2h3-2-0----
G-----2------------------     G------------------------
D-------0----------------     D--2h4-2----2------------
A------------------------     A------------------------
E------------------------     E------------------------



  

 riff 8                 riff 9                    riff 10                       

E-----------------    E------------------------   E------------------------     
B----3------------    B------------------------   B------3-----------------    
G------2----------    G------------2-----------   G---2----2--2------------   
D--0------0h4-----    D--2--2--2h4-------------   D------------------------    
A-----------------    A------------------------   A------------------------   
E-----------------    E------------------------   E------------------------    


cualquier duda   luismi@tocamela.cat

salut 






Luismi
ExpandirContraure

55 Comentaris. Comenta


Posa aquí la URL del vídeo d'un youtube (opcinal)

El video està bé però falta molts riff(en total son dotze) y el solo i l'interludi. A més, el pincipi no es ben bé igual. El tros que has explicat el que toca perfecte!<br />
By anònim over 3 years ago.
Molt bo!<br />
By anònim over 3 years ago.
Tengo 54 tacos y empece con la guitarra con los 50. Mi primera cancion un poco que suene a algo te lo debo a ti LUISMI. Te animo a que continues, gracias a ti muchos novatos no desfallecemos y como todos estamos en el camino del aprendizaje, no hagas caso a las criticas. No hay nadie tan bueno para criticarte y si alguien cree que eres mal profesor, quizas el problema es que el no sea buen aprendiz de laa vida.<br />
Saludos y continua
By anònim over 4 years ago.
Ets un crack! M'encanta com t'expliques! Això als novatos com jo ens va de lujo per començar a rascar algo que soni una mica bé!
By anònim over 4 years ago.
Me ha encantado, esta genial, con videos asi cualquiera toca la guitarra Graciaas!!
By DCharlie over 5 years ago.
buen tutorial para novatos como yo....gracias!!!
By anònim over 5 years ago.
Gracias tio! Lo has explicado de PM
By anònim over 5 years ago.
Boníssim el vídeo.

Luismi: Pel que som novats en açò de la guitarra, qualsevol ajuda és ben rebuda, així que no faces cas dels que et critiquen. Segurament si ells penjaren algun vídeo, el Marc Knopfler pensaria que són prou dolents tocant la guitarra, ja, ja. Sempre hi ha alguna persona que fa les coses millor que nosaltres, però nosaltres també en fem de millor que altres.

Continue així per fa, pel que a mi em pertoca, vos estic molt agraït, i a poc a poc va sonant-me cada volta millor la guitarra. Ja no és un tros de fusta amb fils ;-)

Petons des de València
By maguchu over 5 years ago.
Te escribo desde Marbella, y la verdad es que soy uno de esos novatos. Me pareces buen profesor, almenos ya se tocar un par de canciones de las que tienes colgadas, es de agradecer que haya gente altruista que quiera enseñar lo que sabe, así que pasa de las críticas y sigue colgando vídeos ;)

Juan G
By anònim over 5 years ago.
ni caso a la gente que solo sabe criticar, porque solo "saben" eso, criticar... si kieren "imitar" a fito, que vallan al programa de "tu si que vales", que lo mismo tendrán + futuro que aquí con los comentarios absurdos...

por cierto haber si subes la de "cerca de las vias" en castellano, que en catalan no me entero xD.

Pd: esta de puta madre tocada y explicada!!!  
By anònim over 5 years ago.

Aquest vídeo és treball propi del professor i representa la seva interpretació personal de la cançó. El material contingut en aquesta pàgina és exclusiu per a ús privat, de manera que es prohibeix la seva reproducció o retransmissió, així com el seu ús per a fins comercials.

Tocamela!

360 Vídeos de 56 professors amb 14.034 comentaris, vistos: 12.233.734 vegades.

Sobre nosaltres

TOCAMELA és una iniciativa de la Associació de Músics Online Toca; amb el principal objectiu de passar-ho bé, ensenyar i conquerir el món i esclavitzar la humanitat.



© 2014 Asoc. Toca & Albert Catalan | Condicions legals | Desenvolupat per Dospixels web development