Tocamela

Vídeo Tutorials de cançons fàcils

Vídeo Oficial Tocamela

Sweep picking

Sweep picking

Has de tenir el Javascript activat i l'última versió del Flash player per poder veure aquest vídeo

22/08/2010 20.821 Vistes

Aquest vídeo està al(s) curso(s): Curs de Guitarra Tocamela, Curs de Metal.
Tablatura de Sweep picking:
Lam (Am)                          Do (C)

|------------8-12-10-8------------|-------------12-15-13-12-------------|
|---------10-----------10---------|----------13-------------13----------|
|-------9-----------------9-------|-------12-------------------12-------|
|----10---------------------10----|----14-------------------------14----|
|-12---------------------------12-|-15-------------------------------15-|
|---------------------------------|-------------------------------------|
  v  v  v v  v ^  v  p ^  ^ ^  ^    sl v  v  v  v  ^  v  p  ^  ^  ^  ^


  Sol (G)                     Fa (F)      Si dism (Bdim)

|----------7-10-8-7-------7-|-8-5-------5-10-7--------7--|
|--------8----------8---8---|-----6---6--------9----9----|
|------7--------------7-----|-------5------------10------|
|----9----------------------|----------------------------|
|-10------------------------|----------------------------|
|---------------------------|----------------------------|
  sl v v v v ^  v p ^ v v v   ^ p ^ v v v ^  p ^ v  v v  


  Lam (Am)                            Do (C)

|-12-8------------------------12-15-|-13-12----------12-13-12----12-15-12----|
|------10------------------13-------|-------13----13----------13----------13-|
|---------9-------------12----------|----------12----------------------------|
|-----------10-------14-------------|----------------------------------------|
|--------------12-15----------------|----------------------------------------|
|-----------------------------------|----------------------------------------|
  ^  p  ^ ^ ^  ^  sl v  v  v  v  ^    v  p  ^  v  v  v  ^  p  v  v  ^  p  v


  Rem (Dm)                                 Si dism (Bdim)

|-17-13----------13-15-13----13-17-13----|-16-13----------13-
|-------15----15----------15----------15-|-------15----15----
|----------14----------------------------|----------16-------
|----------------------------------------|-------------------
|----------------------------------------|-------------------
|----------------------------------------|-------------------
  v  p  v  v  v  v  ^  p  v  v  ^  p  v    v  p  ^  v  v  v  


                    Si dism (Bdim)

-13-10----------10-|-10-7--------7-13-10----------10-|
-------12----12----|------9----9---------12----12----|
----------13-------|--------10--------------13-------|
-------------------|---------------------------------|
-------------------|---------------------------------|
-------------------|---------------------------------|
 ^  p  ^  v  v  v    ^  p ^ v  v v ^  p  ^  v  v  v 


Si dism (Bdim)                          Lam (Am)

|-16-13----------13-19-16----------16-|--------------
|-------15----15----------18----18----|-20-----------
|----------16----------------19-------|--------------
|-------------------------------------|--------------
|-------------------------------------|--------------
|-------------------------------------|--------------
  ^  p  ^  v  v  v  ^  p  ^  v  v  v    ^fb__________


^   picar amb la pua cap amunt
v   picar amb la pua cap avall
fb  full bend
p   pull off
sl  slide


Figura proposada al final de l'exercici per començar a practicarel sweep,
combinant una figura d'acord de la major una pujada amb sweep de cinc cordes
descendent, un de tres descendent i un final de 5 descendent.
Marqueu els accents cada 6 (o 3) notes quan comença cada compàs -|-X

La (A)                          

|------------9-10-|-10-9---------9-|-12-9------------|-----------|
|---------10------|------10---10---|------10---------|-----------|
|-------9---------|---------9------|---------9-------|-----------|
|----11-----------|----------------|-----------11----|-----------|
|-12--------------|----------------|--------------12-|12---------|
|-----------------|----------------|-----------------|-----------|
  v  v  v v  v ^    v  p ^  v v  v   ^  p  ^ ^ ^  ^   v
				
ExpandirContraure

2 Comentaris. Comenta


Posa aquí la URL del vídeo d'un youtube (opcinal)

muy bueno!
By anònim over 7 years ago.
buenisimo gracias muchas gracias<br />
By anònim over 7 years ago.

Aquest vídeo és treball propi del professor i representa la seva interpretació personal de la cançó. El material contingut en aquesta pàgina és exclusiu per a ús privat, de manera que es prohibeix la seva reproducció o retransmissió, així com el seu ús per a fins comercials.

Tocamela!

362 Vídeos de 56 professors amb 14.067 comentaris, vistos: 12.785.656 vegades.

Sobre nosaltres

TOCAMELA és una iniciativa de la Associació de Músics Online Toca; amb el principal objectiu de passar-ho bé, ensenyar i conquerir el món i esclavitzar la humanitat.



© 2018 Asoc. Toca & Albert Catalan | Condicions legals | Desenvolupat per Dospixels web development