Tocamela

Vídeo Tutorials de cançons fàcils

Vídeo Oficial Tocamela

Sweet Home Alabama Lynyrd Skynyrd

Sweet Home Alabama

Has de tenir el Javascript activat i l'última versió del Flash player per poder veure aquest vídeo

08/08/2009 41.883 Vistes
Sweet Home Alabama Acords:
Re
re
Doadd9
doadd9-2
Sol
sol-4
Sweet Home Alabama Backing Track


Tablatura de Sweet Home Alabama:
|------------------|------------------|------------------|
|-------3----------|--------3---------|-----------3------|
|----------2-------|-----------0------|-----------0------|
|-0--0----------0--|------------------|-----------0------|
|------------------|-3p0h3--------3---|-----------2------|
|------------------|------------------|--3p0h3----3------|

|------------------|------------------|------------------|
|------------------|-------3----------|---------3--------|
|-------------2p0--|----------2-------|------------0-----|
|-----0h2p2--------|-0--0--------0----|------------------|
|-0h2-------2------|------------------|--3p0h3--------3--|
|------------------|------------------|------------------|

|------------------|------------------|------------------|
|---------3--------|------------------|--------3---------|
|---------0--------|0-0-2p0-0-4h0-0-5b|-----------2------|
|---------0--------|------------------|--0--0----------0-|
|---------2--------|------------------|------------------|
|-3p0h3---3--------|------------------|------------------|

|------------------|------------------|------------------|
|--------3---------|-----------3------|------------------|
|-----------0------|-----------0------|-------------2p0--|
|------------------|-----------0------|-----0h2h0--------|
|-3p0h3--------3---|-----------2------|-0h2-------2------|
|------------------|--3p0h3----3------|------------------|

|------------------|------------------|------------------|
|-------3----------|--------3---------|---------3------3-|
|----------2-------|-----------0------|---------0------0-|
|-0--0----------0--|------------------|---------0------0-|
|------------------|-3p0h3--------3---|---------2------2-|
|------------------|------------------|--3p0h3--3--3-3-3-|
this is the riff beetween the verses.
|------------------|------------------|------------------|
|------------------|------------------|------------------|
|----------7----7--|------------5--5--|------------------|
|----------7----7--|------------5--5--|------------------|
|-7h8h9------------|--97?-5/7--------|---7?(let ring)-|
|------------------|------------------|------------------|

|----------------------|
|----------------------|
|-------0--------------|
|-----0-------------0--|
|-0h2-----------0h2----|
|---------3p0h3--------|

              ~~~~~                  ~~~~
|-14----------8------------------------------------------------------------------|
|---15-15---10-----11-10-8-10---8------8-10---10b---------8-10-------8-10b-------|
|----14------------------------9------------9---------7h9-------7-8-9-------9----|
|--------------------------------------------------------------------------------|
|--------------------------------------------------------------------------------|
|--------------------------------------------------------------------------------|


|------------------------------------------------------------------------|
|-8-10b-(10)-8-(8)- - - -8-----------------------------------------------|
|- - - - - - - - - - - -97/9 - 7-----------------------------------------|
|- - - - - - - - - - - - - - - - - -9/109- 5p0- - -(0)-------------------|
|------------------------------------------------------------------------|
|------------------------------------------------------------------------|

tabed by miles(stonedgtr)
ExpandirContraure

43 Comentaris. Comenta


Posa aquí la URL del vídeo d'un youtube (opcinal)

Cómo que putos catalanes? Si no te gusta no hace falta que nos visites. Respeta y serás respetado. <br />
By anònim over 6 years ago.
perfi algun video en catala!! jaja
By anònim over 8 years ago.
quina passada :Uauuau
By anònim over 8 years ago.
M'agrada, felicitats!
By anònim over 8 years ago.
putos catalanes no lo podeis hacer en español<br />
By anònim over 8 years ago.
Sin ofender pero el peor video de tocamela con diferencia
By anònim over 9 years ago.
Hi han varios programes, un dels mes gastats és el GUITAR PRO, amb el qual et pots abaixar tablatures completes, posar diferents bases per improvisar, etc...
By anònim over 9 years ago.
si us plau!preparat les coses, que no costa res, és que si no és massa liat per la gent que intenta aprendre!
By anònim over 9 years ago.
Vas molt ràpiid!!! :)
By anònim over 10 years ago.
solo una pregunta . . . . tu la aprendiste con esas explicaciones tan pausadas y claras como las tuyas???????????
By anònim over 10 years ago.

Aquest vídeo és treball propi del professor i representa la seva interpretació personal de la cançó. El material contingut en aquesta pàgina és exclusiu per a ús privat, de manera que es prohibeix la seva reproducció o retransmissió, així com el seu ús per a fins comercials.

Tocamela!

362 Vídeos de 56 professors amb 14.070 comentaris, vistos: 12.925.110 vegades.

Sobre nosaltres

TOCAMELA és una iniciativa de la Associació de Músics Online Toca; amb el principal objectiu de passar-ho bé, ensenyar i conquerir el món i esclavitzar la humanitat.



© 2019 Asoc. Toca & Albert Catalan | Condicions legals | Desenvolupat per Dospixels web development