Tocamela

Vídeo Tutorials de cançons fàcils

Vídeo Oficial Tocamela

Iniciació al Tapping

Iniciació al Tapping

Has de tenir el Javascript activat i l'última versió del Flash player per poder veure aquest vídeo

25/12/2007 19.574 Vistes

Aquest vídeo està al(s) curso(s): Curs de Guitarra Tocamela, Curs de Metal.
Nota de Iniciació al Tapping:

Més exemples companys!! A currar! (tocar els tres exemples amb la corda nº1 de Mi)


E menor pentatònica sobre la primera corda:                                            

E|---0-----3-----5-----7----10-----12-----15-----17-----19-----22-----|

 

Tresillos descendents (T = tap)

E|---12-----3-----0-----10-----3-----7-----3-----0-----10-----3-----0-----12----|
T T T T

Corcheres descendents:

E|---15-----5-----3-----0-----15-----5-----0-----15-----10-----7-----0-----15-----12----10----0----|
T T T T
Roda exemple improvització (tablatura):
corda nº 6  --0---0------------------------------------------
corda nº 5 --2---2----------7----5----------5--5--5--4--3
corda nº 4 --2---2----------9----7-------------------------
corda nº 3 --0---0----------9----7-------------------------
corda nº 2 --------------------------------------------------

--0---0------------------------------------------
--2---2----------7----5-------------------------
--2---2----------9----7--------------4--4--5--4
--0---0----------9----7-------------------------

--0---0------------------------------------------
--2---2----------7----5--------------5--4--3---
--2---2----------9----7-------------------------
--0---0----------9----7-------------------------
--------------------------------------------------

--0---0------------------------------------------
--2---2----------7----5-------------------------
--2---2----------9----7--------------4--4--5--4
--0---0----------9----7-------------------------

-----------(pm)----------------5--3--5--5---------------------
--3----3-3-3-3-3-3------------7--5--7--5------------2-2-5-7
--5----5-5-5-5-5-5------------7--5--7--7---------------------
--5----5-5-5-5-5-5------------7------------------------------- (canvi)
ExpandirContraure

23 Comentaris. Comenta


Posa aquí la URL del vídeo d'un youtube (opcinal)

ola

esta xulo el video   algu pot posar algo de the offspring siusplau   gracies
By alex m over 9 years ago.
esta molt be pero jo soc principian i per la gent com llo crec que ho hauries de explicar millor pero tot i aigi felisitats.
By anònim over 10 years ago.
kinakinakinakina kanya ets un CRAK PO PLIS UNA DEL BON JOVI
By anònim over 10 years ago.
Midnight-Joe Satriani
By anònim over 10 years ago.
Eric necessito la tablattura del troç que toques tu a partir del minut 5:20 !!!!!

em faries un favor molt gran si me la enviessis per missatje privat o simplement contestant al post en que la demano:

http://forum.tocamela.cat/viewtopic.php?f=31&t=589

Gracies.

By anònim over 10 years ago.
Vaya crack, llàstima que hagis dinamitat les possibles expectatives de pillar catx que algú podia dipositar en l'aprenentatge d'aquesta tècnica.
By polimusiquista over 10 years ago.
Hola Hector, la base que toco es un exemple de roda "tipus Van Halen". Si vols et puc passar la tablatura. Entra al forum de la pagina, registre´t i envie´m un missatge privat amb el teu mail i te la faré arribar.
By eric over 10 years ago.
Hola mestre!



A mi el que m'agradaria tocar seria la base heavy de musica de fons,d'on las treta?D'alguna canço potser?



Saluts!
By Hector over 11 years ago.
gracias por el consejo
By periku over 11 years ago.
Jordi, em compro una piga i la faig jo!
By tocamela over 11 years ago.

Aquest vídeo és treball propi del professor i representa la seva interpretació personal de la cançó. El material contingut en aquesta pàgina és exclusiu per a ús privat, de manera que es prohibeix la seva reproducció o retransmissió, així com el seu ús per a fins comercials.

Tocamela!

362 Vídeos de 56 professors amb 14.067 comentaris, vistos: 12.785.631 vegades.

Sobre nosaltres

TOCAMELA és una iniciativa de la Associació de Músics Online Toca; amb el principal objectiu de passar-ho bé, ensenyar i conquerir el món i esclavitzar la humanitat.



© 2018 Asoc. Toca & Albert Catalan | Condicions legals | Desenvolupat per Dospixels web development