Tocamela

Vídeo Tutorials de cançons fàcils

Vídeo Oficial Tocamela

Tècniques de solo

Tècniques de solo

Has de tenir el Javascript activat i l'última versió del Flash player per poder veure aquest vídeo

20/07/2009 46.439 Vistes

Aquest vídeo està al(s) curso(s): Curs de Guitarra Tocamela, Curs de Metal.
Nota de Tècniques de solo:

Video explicatiu de moltes de les tècniques que s'utilitzen en les guitarres solistes de grups de rock, hard rock o metal com per exemple:

Phrasing, Bending, Pinch harmonics, legato ,alternate picking, tapping, sweep picking

 

Escala A dorian, per si voleu improvitzar sobre la backing track

Part 1: (6:15)

| /sl     | fb¯/¯br p        st   slv^v^v^v       h p       p     
|---------|----------------------------|---------------------------|
|---------|----------------------------|---------------------------|
|-----5-7-|-7-----7---5----5--7----4---|-------x-x-4-5-4---4-------|
|---7-----|-------------7--------------|-----------------7---7-5---|
|---------|----------------------------|-------------------------7-|
|---------|----------------------------|---------------------------|
|
|  hv^v^v st       /sl    v^v^v st  slv^v^
|----------------------|----------------------|
|----------------------|----------------------|
|----------------------|----------------------|
|-5-7-----5------x-5-x-|--4-----5-x-2-----2-0-|
|----------------------|----------------------|
|----------------------|----------------------|
  
Part 2: (7:15)
  
  
  
| sl        p       p p        ^v^v  ^v^  p       p slp h p h 
|------5---------------------------|---------------------------|
|-/5-----5-8-5---5-----------------|---------------------------|
|--------------8---8-7-5---7---5---|---------------------------|
|------------------------7---7-----|-7---7-5---5---------------|
|----------------------------------|---------7---7-53-0-5-0-3-|
|----------------------------------|---------------------------|
|
| sl   /sl          sl      fb/¯/¯br p 
|-----------------|----------------------|
|-----------------|----------------------|
|----------5------|-4---5-x--7---7-----5-|
|----------5--7---|----------------------|
|-5/7---7---------|----------------------|
|-----------------|----------------------|
  
Part 3: (10:10)
  
  
|     sl          p                    fb/¯_sl^v^v  p  
|-------------8-12-8--------------12-|----------------------|
|----------10--------10--------10----|-10-----5-----7-5---5-|
|--------9--------------9----9-------|------------------7---|
|-7--/10------------------10---------|----------------------|
|------------------------------------|----------------------|
|------------------------------------|----------------------|
|
| hb//¯br p              ^v^v^v             ^v^v
|---------------------------|-------------------------|
|-7---------5----5--7--5----|-----------5----7--------|
|-------------7-----------7-|-----------5----7--------|
|---------------------------|--------7-----x----------|
|---------------------------|-------------------------|
|---------------------------|-------------------------|
  
Part 4: (12:00)
  
  
| (  3 ) ( 3 ) ( 3  ) ( 3 ) ( 3 ) ( 3  ) ( 3  ) ( 3  ) | fb//¯/¯¯br p
|------------------------------------7-8-7-------------|----------------|
|---------------------7-8-7---7-8-10-------10-8-7-8-10-|-10----10-----8-|
|--------7-9-7----7-9-------9--------------------------|----------------|
|-7-9-10-------10--------------------------------------|----------------|
|------------------------------------------------------|----------------|
|------------------------------------------------------|----------------|
|
| ^v^v^v   h p sl   h p      h p     ^v^v^v     t13
|----------------------------------|------------------0--0--|
|-7-------7-8-75--5-7-53--3-5-3-|-1-------1--<1>---0--0--|
|----------------------------------|------------------0--0--|
|----------------------------------|------------------------|
|----------------------------------|------------------------|
|----------------------------------|------------------------|
  
Part 5: (12:51)
  
  
| fb¯/¯br p        st   slv^v^v^v       h p       p     
|----------------------------|-----------------------------|
|----------------------------|-------------------------5-7-|
|-7-----7---5----5--7----4---|-------x-x-4-5-4---4-5-7-----|
|-------------7--------------|-----------------7-----------|
|----------------------------|-----------------------------|
|----------------------------|-----------------------------|
|
| hb//¯br p      st     | hb//¯br p    ^v^v^v^v
|------------------------|-7---------5-------------|
|-7---------5-----5------|-------------7-7-------/-|
|-------------7-7--------|-------------------------|
|------------------------|-------------------------|
|------------------------|-------------------------|
|------------------------|-------------------------|
  
Part 6: (19:21)
  
  
| (  3   ) (   3  ) (   3  ) (   3  ) (  3   ) (   3  ) (   3  ) (   3  ) |
|   h  h     h  p     p  p  h  p        h  h     h  p     p  p  h  p      |
|-------------------------------------------------------------------------|
|----------11-12-11----------------------------11-12-11-------------------|
|-11-12-14----------14-12-11-12-11----11-12-14----------14-12-11-12-11----|
|----------------------------------14----------------------------------14-|
|-------------------------------------------------------------------------|
|-------------------------------------------------------------------------|
| 
| (  3   ) (   3  ) (   3  ) (   3  ) (  3   ) (   3  )         |
|   h  h     h  h     h  h     h  p     p  p  h  p  h   /fb¯¯¯¯ |
|----------------------------12-14-12---------------------------|
|-------------------12-13-15----------15-13-12-13-12-13-15------|
|----------11-12-14---------------------------------------------|
|-11-12-14------------------------------------------------------|
|---------------------------------------------------------------|
|---------------------------------------------------------------|
|
|                                    (  3  ) (  3  ) (  3   ) (   3  ) |
| ^v^^      /fb/¯br p       v^vst     p            sl                 |
|------------------------------------12-8------------------------12-15-|-15-
|-15--13-12-13----13--12--------12--------10------------------13-------|-----
|-------------------------14-14--------------9-------------12----------|-----
|----------------------------------------------10-------14-------------|-----
|-------------------------------------------------12/15----------------|-----
|----------------------------------------------------------------------|-----
  
Part 7: (21:15)

    
|         hb/¯br p          ^v^v^v     ^v^v^v  ^v^v
|-15---------------------|-------------------------|
|---------7---7---5---5-7-|--------------------5----|
|-------------------7-----|-5-----------------------|
|-------------------------|---------7--7------------|
|-------------------------|-------------------------|
|-------------------------|-------------------------|
|
| ( 3 ) ( 3  ) ( 3 ) ( 3  ) ( 3 ) ( 3 ) ( 3 ) ( 3 )   ( 3 ) ( 3  )
|  p hs	s p p h p hs	s p p h p hs	sp p h p hs	sp p      p hs	sp p 
|---------------------------------------------------||-------------||
|-8-5-8-12-8-5-8-5-8-10-8-5-7-5-7-8-7-5-7-5-7-8-7-5-||-------------||
|---------------------------------------------------||-7-5-7-8-7-5-|| X 4   
|---------------------------------------------------||-------------||
|---------------------------------------------------||-------------||
|---------------------------------------------------||-------------||
  
Part 8: (22:21)
  
  
| fb¯/¯br p        st   slv^v^v^v h p      p p    p     
|----------------------------|-------------------------|
|----------------------------|-------------------------|
|-7-----7---5----5--7----4---|-------5-42--4-2-0--2-0-|
|-------------7--------------|-------------------------|
|----------------------------|-------------------------|
|----------------------------|-------------------------|
|
| v^v^v^v         fb¯/¯¯¯///     
|---------------|----------------|
|---------------|----------------|
|---------------|----------------|
|-4-------4-5-7-|-5------<5>-----|
|---------------|----------------|
|---------------|----------------|

 

Backing Track: (Download)

 Per descarregar el backing feu servir el firefox o el Chrome, que l'explorer no tira.
ExpandirContraure

76 Comentaris. Comenta


Posa aquí la URL del vídeo d'un youtube (opcinal)

Ostres Valls com m'agradaria tenir la teva tècnica i soltura amb la guitarra!<br />
Molt bona feina i molt didàctic. <br />
Francesc (fracasmiq)
By fracasmiq over 7 years ago.
q bus es por
By anònim over 7 years ago.
el guitar pro es un programa d'ordinador per escriure musica, on apareixen cançons en pentagrama i en tablatura
By anònim over 7 years ago.
jo no ho veig traduit
By Edugd over 8 years ago.
no puedo descargar el baking track
By anònim over 8 years ago.
parce ud es mi heroe muy teso desde colombia se le admira :D
By anònim over 8 years ago.
parce ud es mi heroe muy teso desde colombia se le admira :D
By anònim over 8 years ago.
Graicas a ti por la traduccion Roberto, eres un hacha!!!!!
By valls over 8 years ago.
No hay mes que no lo vea, de nuevo, gracias Valls... Que bestia! =D
By toletum91zgz over 8 years ago.
Què és el guitar pro??? XD
By valls over 8 years ago.

Aquest vídeo és treball propi del professor i representa la seva interpretació personal de la cançó. El material contingut en aquesta pàgina és exclusiu per a ús privat, de manera que es prohibeix la seva reproducció o retransmissió, així com el seu ús per a fins comercials.

Tocamela!

362 Vídeos de 56 professors amb 14.064 comentaris, vistos: 12.573.129 vegades.

Sobre nosaltres

TOCAMELA és una iniciativa de la Associació de Músics Online Toca; amb el principal objectiu de passar-ho bé, ensenyar i conquerir el món i esclavitzar la humanitat.



© 2018 Asoc. Toca & Albert Catalan | Condicions legals | Desenvolupat per Dospixels web development