Tocamela

Vídeo Tutorials de cançons fàcils

Vídeo Oficial Tocamela

The Metal [Main Riff] Tenacious D

The Metal [Main Riff]

Has de tenir el Javascript activat i l'última versió del Flash player per poder veure aquest vídeo

08/01/2010 26.770 Vistes

Aquest vídeo està al(s) curso(s): Curs de Metal.
The Metal [Main Riff] Backing Track


Nota de The Metal [Main Riff]:

Jo també els vaig conèixer pel guitar hero ":lol:"
Quan hagueu de parar al so a mig riff siusplau poseu la ma dreta sobre tot el pont de la guitarra, aixi no us sortirà aquesta merda d'harmònic que em queda a mi per allà sonant ":|"
...i si hauria d'haver anat una mica més ràpid... 

 

Yo también los conocí por el guitar hero: lol: ":lol:"
Cuando haya que parar el sonido a medio riff favor ponga la mano derecha sobre todo el puente de la guitarra, así no te saldrá esta mierda de armónico que me queda a mí por allí sonando: |":|"
... y si debería haber ido un poco más rápido ... : P

ExpandirContraure
Tablatura de The Metal [Main Riff]:
Spoiler: Ocultar

e|---------------------------------------------------------------------------|
B|---------------------------------------------------------------------------|
G|---------------------------------------------------------------------------|
D|--2-------------------------------------2----------------------------------|
A|--2----------------3p2p0h2p0--2h3p2p0---2----------------3p2p0h2-----------|
E|--0--0--0--3p0--0-----------------------0--0--0--3p0--0--------------------|
 |
e|---------------------------------------------------------------------------|
B|---------------------------------------------------------------------------|
G|---------------------------------------------------------------------------|x5       
D|--2-------------------------------------------5p3p2h3p2p0h2p0h2h3p2p0------|
A|--2----------------3p2p0h2p0--2h3p2p0------3-------------------------------|
E|--0--0--0--3p0--0-----------------------1----------------------------------|
ExpandirContraure

7 Comentaris. Comenta


Posa aquí la URL del vídeo d'un youtube (opcinal)

sempre que escolto la canço aquesta em motivo per tocar la guitarra bonissim
By Pau Carcacer over 7 years ago.
ola

mira que fa temps que estic aprenent cançons pel tocamela ja fa un any i mitg!! y m'agradaria que possasiu la de ''cantares''  de Serrat

gracies
By anònim over 8 years ago.
Gràcies Eric per ensenyar-m'ho!

By valls over 8 years ago.
Ahi estemos panyu!



They can´t kill the metal!
By Eric over 8 years ago.
Porfavor,podriais poner el tab de toda la cancion?
By anònim over 8 years ago.
neta hermano tocas muy bn sigue asi

By anònim over 8 years ago.
Bonssima la cançó! Jo també el vaig conèixer a partir del GH! I moltes feliçitats per fer aquest riff! ;-) Quan pugui miro el video i el faig!



Bon any 2010!
By anònim over 8 years ago.

Aquest vídeo és treball propi del professor i representa la seva interpretació personal de la cançó. El material contingut en aquesta pàgina és exclusiu per a ús privat, de manera que es prohibeix la seva reproducció o retransmissió, així com el seu ús per a fins comercials.

Tocamela!

362 Vídeos de 56 professors amb 14.066 comentaris, vistos: 12.665.573 vegades.

Sobre nosaltres

TOCAMELA és una iniciativa de la Associació de Músics Online Toca; amb el principal objectiu de passar-ho bé, ensenyar i conquerir el món i esclavitzar la humanitat.



© 2018 Asoc. Toca & Albert Catalan | Condicions legals | Desenvolupat per Dospixels web development