Tocamela

Vídeo Tutorials de cançons fàcils

Vídeo Oficial Tocamela

Thrash Metal

Thrash Metal

Has de tenir el Javascript activat i l'última versió del Flash player per poder veure aquest vídeo

26/12/2007 20.173 Vistes

Aquest vídeo està al(s) curso(s): Curs de Metal.
Nota de Thrash Metal:

1 era Frase - Frase Sincopada  (corda nº6 afinada en Re)


E-|-------------------------------------------|--------------------------------------|
B-|-------------------------------------------|--------------------------------------|
G-|-------------------------------------------|--------------------------------------|
D-|-------------------------------------------|--------------------------------------|
A-|-------------------------------------------|--------------------------------------|
D-|--0--0----0----0----0----0--6--0--5--3--0--|--0--0----0----0----0----0--7--8--10--|

 


2ona Frase -  Frase estil Pantera  (corda nº6 afinada en Re)


E-|---------------------------------------------|---------------------------------------------|
B-|---------------------------------------------|---------------------------------------------|
G-|---------------------------------------------|---------------------------------------------|
D-|--0--0----0--0----0--0----0--0----0--0----0--|--0--0----0--0----0--0----0--0----0--0----1--|
A-|--0--0----0--0----0--0----0--0----0--0----0--|--0--0----0--0----0--0----0--0----0--0----1--|
D-|--0--0----0--0----0--0----0--0----0--0----0--|--0--0----0--0----0--0----0--0----0--0----1--|


Imporvització


E-|---------------------------------------------|---------------------------------------------|
B-|--10up--8up--6-----6--5----------------------|---------------------------------------------|
G-|----------------7-------5--------------------|---------------------------------------------|
D-|---------------------------------------------|--7-5--------------3-------------------------|
A-|---------------------------------------------|-------8--5--3--5-------5up------------------|
D-|---------------------------------------------|---------------------------------------------|

Com llegir la tablatura
ExpandirContraure

18 Comentaris. Comenta


Posa aquí la URL del vídeo d'un youtube (opcinal)

ola, esta xulo el video, molt cañeru, pro lo de l'ampli es veritat.





algu podria posar algun video de the offspring, siusplau?

By alex m over 10 years ago.
dgjeeeeeeeeee
By anònim over 11 years ago.
Hola, està molt bé que aneu entrant en coses més canyeres... però podrieu baixar el gain de l'ampli i no passaria res, crec que tots ho agrairíem :)



Al dels tappings de 15 minuts... quin conyazo, tiu xD
By anònim over 11 years ago.
Es diu THRASH. THRASH!!! NO TRASH!!! com pot ser que un paio que es declara fan absolut del gènere no sigui capaç de pronunciar-lo bé i digui "brossa" enlloc?
By anònim over 11 years ago.
surt el so del senyal del movil a mig video.. xDDD
By anònim over 11 years ago.
YO TOCO TAPPING DE 15 MINUTOS Y TOCO TRANS METAL Y APENAS TENGO 14 AÑOS . TOCO MEJOR QUE EL DE LOS VIDEOS

By anònim over 11 years ago.
Enga Eric esperem més videos ;)
By Tordek over 11 years ago.
wAAAA PERICOO ( los llamo asi a todos los eric )



nen..mcuhisisimas gracias!!! akabo de entrar en un grupo i me pedian este estilo...no tenia NPI...gracias peri...:D



he puesto el amplio a toda distorsion i a amximo volumen ( casi ) i de vrdad q me creo dios de mi guitarra por una VEZ!





GRACIAS! ^^ ( alomejor me he emocionao un poko...);)



JOEL
By PRINCIPIANTEDE15TOEMOCIONAOYAHORAFLIPAO...TO JUNTO over 11 years ago.
Iep!!! ja està areglat!; gràcies per avisar.
By tocamela over 12 years ago.
ei bones



que no es pot veure el video



si ho podeu arregalr mersi
By Sergi93 over 12 years ago.

Aquest vídeo és treball propi del professor i representa la seva interpretació personal de la cançó. El material contingut en aquesta pàgina és exclusiu per a ús privat, de manera que es prohibeix la seva reproducció o retransmissió, així com el seu ús per a fins comercials.

Tocamela!

362 Vídeos de 56 professors amb 14.052 comentaris, vistos: 12.038.586 vegades.

Sobre nosaltres

TOCAMELA és una iniciativa de la Associació de Músics Online Toca; amb el principal objectiu de passar-ho bé, ensenyar i conquerir el món i esclavitzar la humanitat.



© 2020 Asoc. Toca & Albert Catalan | Condicions legals | Desenvolupat per Dospixels web development