Tocamela

Vídeo Tutorials de cançons fàcils

Vídeo Oficial Tocamela

Com Tocar amb Pua

Com Tocar amb Pua

Has de tenir el Javascript activat i l'última versió del Flash player per poder veure aquest vídeo

16/11/2007 29.557 Vistes

Aquest vídeo està al(s) curso(s): Curs de Guitarra Tocamela.
Nota de Com Tocar amb Pua:
Diria que és algo així... (+ o -)
 
-------2------2--------------------------2------2-----------------2-----2--------------------
---3-5------3---5-----2-3-2----------3-5------3---5-2---------3-5-----3---5----2-3-2---------
-2--------------------------4------2------------------4-----2-------------------------4------
---------------------------------------------------------------------------------------------
---------------------------------------------------------------------------------------------
---------------------------------------------------------------------------------------------
 
-------2------2----------
---3-5------3---5-3-2-3--
-2-----------------------
------------------------- 
-------------------------
-------------------------
 
 
Late motive dels musiconsells
Compositor del tema original: Íñigo (el tio que planta petúnies del bricomania)
 
Acords: Re - La - Sim - Sol
Algun dia grabarem algo amb aquests 4 acords pq no us podeu ni imaginar la 
de temes que donen x tocar...
 
ExpandirContraure

28 Comentaris. Comenta


Posa aquí la URL del vídeo d'un youtube (opcinal)

tornar a pujar el vídeo si us plau<br />
tocamela o vés!!
By anònim over 8 years ago.
el video es penjaaaa!!!!! NOOOO! jo el volia acabar de veure T.T
By anònim over 9 years ago.
buunissima!!!he començat fa un dia a tocar la guitarra!!estic mutivadissim!!tocamelaaa!!xD
By anònim over 10 years ago.
Quines son les cançons?



Gracies ;)

By anònim over 10 years ago.
valls aquest tema mencanta!
By atrak1catala over 10 years ago.
aquesta canso es bricomania
By anònim over 10 years ago.
valls i xavi cracks !!!

La canço del final es depende de jarabe de !palo

A mi també me encanta jarabe de palo xabi
By Slaguir over 10 years ago.
xavi,has d´ensenyar la canço del final sino digues el nom de la canço

By anònim over 10 years ago.
Xavi, ens has d'ensenyar a tocar la cançó del final!!
By anònim over 11 years ago.
Esa cancion existe o es pura improvisacion?? Suena muy bien =P
By anònim over 11 years ago.

Aquest vídeo és treball propi del professor i representa la seva interpretació personal de la cançó. El material contingut en aquesta pàgina és exclusiu per a ús privat, de manera que es prohibeix la seva reproducció o retransmissió, així com el seu ús per a fins comercials.

Tocamela!

362 Vídeos de 56 professors amb 14.070 comentaris, vistos: 12.946.490 vegades.

Sobre nosaltres

TOCAMELA és una iniciativa de la Associació de Músics Online Toca; amb el principal objectiu de passar-ho bé, ensenyar i conquerir el món i esclavitzar la humanitat.



© 2019 Asoc. Toca & Albert Catalan | Condicions legals | Desenvolupat per Dospixels web development