Tocamela

Vídeo Tutorials de cançons fàcils

Vídeo Oficial Tocamela

Woo Hoo 5,6,7,8s

Woo Hoo

Has de tenir el Javascript activat i l'última versió del Flash player per poder veure aquest vídeo

25/08/2009 20.144 Vistes

Aquest vídeo està al(s) curso(s): Curs de Guitarra Tocamela.
Nota de Woo Hoo:

Aquí­ teniu la tablatura. He procurat fer-ho lo millor posible ja que jo i les
 tablatures..... a mes a mes, en cada web que miro ho fan d'una manera diferent,
però cap com la meva, la qual em sembla la mes fàcil i còmode per fer pua/contrapua.

Per cert, lo que us posare es com si fesim nomès PUA, al video jo faig PUA/CONTRAPUA,
però es per no haver d'escriure tants numerets. Resumint, que en comptes d'un cop, feu
dos cops cada número que marco a la tablatura ok?

 

ExpandirContraure
Tablatura de Woo Hoo:
E--------------------------------------------------------------------------|
B--------------------------------------------------------------------------|
G--------------------------------------------------------------------------|
D----------------------4--5--4-------------------4--5--4-------------------|
A-0000000000--0--4--7-----------7--4----0--4--7-----------7--4-------------|
E--------------------------------------------------------------------------|

E--------------------------------------------------------------------------|
B--------------------------------------------------------------------------|
G----------------------4--5--4---------------------------------------------|
D-------------0--4--7-----------7--4-------------4--5--4-------------------|
A---------------------------------------0--4--7-----------7--4-------------|
E--------------------------------------------------------------------------|

E--------------------------------------------------------------------------|
B--------------------------------------------------------------------------|
G--------------------------------------------------------------------------|
D----------------4--5--4---------------------------------------------------|
A-------------7-----------7--5--4-----0------------------------------------|
E----------------------------------7---------------------------------------|

Lo dem�©s, com ja explico, son acords, els acords amb els que es forma aquest "Rock",
 "blues", digueu-li com vulgueu! (A - D / A - E / D - A)


Vaaagi be!
ExpandirContraure

24 Comentaris. Comenta


Posa aquí la URL del vídeo d'un youtube (opcinal)

buena esa
By anònim over 9 years ago.
Aquesta per fer la festa avui a la nit. Molt bé . Molt bé les japonesas també:-D

By galego over 9 years ago.
Paco tocamela !!!!!
By anònim over 9 years ago.
Uo!Pac man in action! les BSO que te Quentin son la canya tio.

una abrazada de part del kiu i merci
By anònim over 9 years ago.
Aquest video té de tot: rocanrol, dones i una stratopacster. Però el que li dóna el valor afegit és el cameo de l'Albert.
By intratable over 9 years ago.
Pac
Isíotopos?? Cagunloxtia!!! ALbert!! Sembles un simiu?? jajaja Per cert, com tas flipat amb les preses falses no?? jaja, el dia que grabis tu un video (JA!) l'editaré jo......jajaja





Sruc!! Aquí tens ;) Encara que està força explicat ja eh?? i mes amb els subtitols molons de l'Alpert!
By Pac over 9 years ago.
Pacooo la tablatura si et plaaaau. O te rajo.
By Sruc over 9 years ago.
Molt bé!!!
By xavitopez over 9 years ago.
es pretty fly for a white guy...no?dels offspring
By anònim over 9 years ago.
si poseu tablatura millor es que jo no m´aclare
By anònim over 9 years ago.

Aquest vídeo és treball propi del professor i representa la seva interpretació personal de la cançó. El material contingut en aquesta pàgina és exclusiu per a ús privat, de manera que es prohibeix la seva reproducció o retransmissió, així com el seu ús per a fins comercials.

Tocamela!

362 Vídeos de 56 professors amb 14.067 comentaris, vistos: 12.785.648 vegades.

Sobre nosaltres

TOCAMELA és una iniciativa de la Associació de Músics Online Toca; amb el principal objectiu de passar-ho bé, ensenyar i conquerir el món i esclavitzar la humanitat.



© 2018 Asoc. Toca & Albert Catalan | Condicions legals | Desenvolupat per Dospixels web development